Oops, an error
Loading. Please wait.

Cámara De Faltas tab

version 1
version 1

Whole song

Interactive

4,937 views 6 this week
no commentswrite comment
1 2 3 4 5
x 3
add to favorites
×
Save as Personal and add changes to this tab that will be seen only by you. Learn more ›
×
You can save this tab as Personal to edit and correct it or add notes. All changes will be seen only by you. Learn more »
launch autoscroll
font size
0
reset
how to read this tab
guitar tuner
edit
Autoscroll
slow
fast
+/-
esc
set tempo
stop
Author
--## Tablatura de mi versión para Cámara de Faltas de Enjambre,
por Fernando Arroyo, checa mi
cover, para mayor referencia de la tab, en youtube,
http://youtu.be/K-kOweH58Bg
además, podrás bajar los backing tracks para practicar :)
Comentarios o sugerencias a fergto78@hotmail.com
http://www.facebook.com/fergto78
--##

-Afinación Estándar
-Acordes sin tiempos

Guitarra 1

Intro y verso

    F#m   Bm7no5   G#dim7  Amaj7
e|--9--------------7---------------|
B|--10-------------6-------5-------|
G|.-11----7--------7-------6------.|4 tiempos
D|.-11----7--------6-------6------.|
A|--9-----X----------------X-------|
E|--------7----------------5-------|

    F#m   Bm7no5   G#dim7   Bdim7
e|--9--------------7-------/10-----|
B|--10-------------6-------/9------|
G|--11----7--------7-------/10-----|
D|--11----7--------6-------/9------|
A|--9-----X------------------------|
E|--------7------------------------|

Coro

  A      F#m    C#m7
|-9------9------9--------------|
|-10-----10-----9--------------|
|-9------11-----9--------------|
|-11-----11-----9--------------|
|-0------9------11-------------|
|---------------9--------------|

Solo

|-------------------------------------------|
|----9-10/-14--9~~--------------------------|
|-11---------------/7---7--9-/11------------|
|---------------------7----------11~~--9--7-|
|-------------------------------------------|
|-------------------------------------------|

|--------------------------------------------------|
|--------------------------------------------------|
|--------------------------------6---6-7/9-7-6--1b-|
|-4~~----4-----4-/6~~----6-----6---7---------------|
|----5-7---5-7-------7-9---7-9---------------------|
|--------------------------------------------------|
(al final del solo una guitarra puede  
 hacer volume swell con el acorde F#m)

Verso

   F#m   Bm7no5   G#dim7  Amaj7
|--9--------------7---------------|
|--10-------------6-------5-------|
|--11----7--------7-------6-------|
|--11----7--------6-------6-------|
|--9-----X----------------X-------|
|--------7----------------5-------|

   F#m   Bm7no5   G#dim7   Bdim7
|--9--------------7-------/10-----|
|--10-------------6-------/9------|
|--11----7--------7-------/10-----|
|--11----7--------6-------/9------|
|--9-----X------------------------|
|--------7------------------------|

Coro

   A      F#m    C#m7
|--9------9------9--------------|
|--10-----10-----9--------------|
|.-9------11-----9-------------.|2 tiempos
|.-11-----11-----9-------------.|
|--0------9------11-------------|
|----------------9--------------|

  Bm7   C#m7   Bm7   E
|-7-----9------7----------------|
|-7-----9------7-----9----------|
|-7-----9------7-----9----------|
|-7-----9------7-----9----------|
|-9-----11-----9-----7----------|
|-7-----9------7----------------|

Puente

   F#m   Bm7no5   G#dim7  Amaj7
|--9--------------7---------------|
|--10-------------6-------5-------|
|--11----7--------7-------6-------|
|--11----7--------6-------6-------|
|--9-----X----------------X-------|
|--------7----------------5-------|
Palm Muting . . . . . . . .

   F#m   Bm7no5   G#dim7   Bdim7
|--9--------------7-------/10-----|
|--10-------------6-------/9------|
|--11----7--------7-------/10-----|
|--11----7--------6-------/9------|
|--9-----X------------------------|
|--------7------------------------|
Palm Muting . . . . . . 

  Bm7                C#m7      
|-7----7-----7-------9-------------|
|-7------7-----7-----9-------------|
|-7--7-----7-----7---9-------------|
|-7------------------9-------------|
|-9------------------11------------|
|-7------------------9-------------|

Coro

   A      F#m    C#m7
|--9------9------9--------------|
|--10-----10-----9--------------|
|.-9------11-----9-------------.|2 tiempos
|.-11-----11-----9-------------.|
|--0------9------11-------------|
|----------------9--------------|

Outro

   Amaj7
|-----------------------------------|
|----------------5--5----------5----|
|----------------6--6----------6----|
|--6-------------6--6--6-------6----|
|--X-------------------X-------X----|
|--5-------------------5-------5----|
Palm Muting. . .       . . .
___________________________________________________

Arreglos del teclado para 2 guitarras

Guitarra 1

|-(2 tiempos)-|--------------------------------|
|-------------|--------------------------------|
|.-h11h13h14-.|-h11h13h14t16---h11h13h14t16t18-|
|.-----------.|--------------------------------|
|-------------|--------------------------------|
|-------------|--------------------------------|

Guitarra 2

|-(2 tiempos)-|--------------------------------|
|-------------|--------------------------------|
|.-----------.|--------------------------------|
|.-----------.|--------------------------------|
|-------------|--------------------------------|
|--h14h16h17--|-h14h16h17t19---h14h16h17t19t21-|

Guitarra 1

|-(2 tiempos)-|--------------------------------|
|-------------|--------------------------------|
|.-h11h13h14-.|-h11h13h14t16---h11h13h14t16t18-|
|.-----------.|--------------------------------|
|-------------|--------------------------------|
|-------------|--------------------------------|

|-(2 tiempos)-|--------------------------------|
|-------------|--------------h15-h14-----------|
|.-h11h13h14-.|-h11h13h14t16---------h14~~~~~~~|
|.-----------.|--------------------------------|
|-------------|--------------------------------|
|-------------|--------------------------------|

|-----------------------------------------------|
|-17-15-14-15----17-15-14-15----17-15-14-15-17~~|
|-----------------------------------------------|
|-------------16-------------14-----------------|
|-----------------------------------------------|
|-----------------------------------------------|

|-16-14----------------------|
|-------17~~~-15-17-15-14----|
|----------------------------|
|-------------------------16-|
|----------------------------|
|----------------------------|

Guitarra 2

|-(2 tiempos)-|--------------------------------|
|-------------|--------------------------------|
|.-----------.|--------------------------------|
|.-----------.|--------------------------------|
|-------------|--------------------------------|
|--h14h16h17--|-h14h16h17t19---h14h16h17t19t21-|

|-(2 tiempos)-|--------------------------------|
|-------------|--------------------------------|
|.-----------.|--------------------------------|
|.-----------.|--------------------------------|
|-------------|---------------h17-h16----------|
|--h14h16h17--|- h14h16h17t19---------h17~~~~~-|

|-----------------------------------------------|
|-----------------------------------------------|
|-----------------------------------------------|
|-14-------------14-------------14----------14~~|
|----17-16-17-------17-16-17-------17-16-17-----|
|-------------14-------------12-----------------|

|----------------------------|
|----------------------------|
|----------------------------|
|-18-16-14~~~----14----------|
|-------------17----17-16----|
|-------------------------14-|

Guitarra 1

|-(2 tiempos)-|--------------------------------|
|-------------|--------------------------------|
|.-h11h13h14-.|-h11h13h14t16---h11h13h14t16t18-|
|.-----------.|--------------------------------|
|-------------|--------------------------------|
|-------------|--------------------------------|

|-(2 tiempos)-|--------------------------------|
|-------------|--------------h15-h14-----------|
|.-h11h13h14-.|-h11h13h14t16---------h14~~~~~~~|
|.-----------.|--------------------------------|
|-------------|--------------------------------|
|-------------|--------------------------------|

|-----------------------------------------------|
|-17-15-14-15----17-15-14-15----17-15-14-15-17~~|
|-----------------------------------------------|
|-------------16-------------14-----------------|
|-----------------------------------------------|
|-----------------------------------------------|

|-16-14------------------------|
|-------17~~~-15-17-15-14------|
|-------------------------14~~~|
|------------------------------|
|------------------------------|
|------------------------------|

Guitarra 2

|-(2 tiempos)-|--------------------------------|
|-------------|--------------------------------|
|.-----------.|--------------------------------|
|.-----------.|--------------------------------|
|-------------|--------------------------------|
|--h14h16h17--|-h14h16h17t19---h14h16h17t19t21-|

|-(2 tiempos)-|--------------------------------|
|-------------|--------------------------------|
|.-----------.|--------------------------------|
|.-----------.|--------------------------------|
|-------------|---------------h17-h16----------|
|--h14h16h17--|- h14h16h17t19---------h17~~~~~-|

|-----------------------------------------------|
|-----------------------------------------------|
|-----------------------------------------------|
|-14-------------14-------------14----------14~~|
|----17-16-17-------17-16-17-------17-16-17-----|
|-------------14-------------12-----------------|

|------------------------------|
|------------------------------|
|------------------------------|
|-18-16-14~~~----14------------|
|-------------17----17-16------|
|-------------------------17~~~|

Guitarra 1

|-----------------------------------------------|
|-17-15-14-15----17-15-14-15----17-15-14-15-17~~|
|-----------------------------------------------|
|-------------16-------------14-----------------|
|-----------------------------------------------|
|-----------------------------------------------|

|-16-14--------------------------------------|
|-------17~~~-15-17-15----15-14----15-14-----|
|----------------------16-------16-------16--|
|--------------------------------------------|
|--------------------------------------------|
|--------------------------------------------|

|----------------------------------------|
|/17-15-14-/17-15-17-/19-17----19-17-----|
|---------------------------19-------19--|
|----------------------------------------|
|----------------------------------------|
|----------------------------------------|

|---------------|
|-/21-/22-/24~~~|
|---------------|
|---------------|
|---------------|
|---------------|

Guitarra 2

|-----------------------------------------------|
|-----------------------------------------------|
|-----------------------------------------------|
|-14-------------14-------------14----------14~~|
|----17-16-17-------17-16-17-------17-16-17-----|
|-------------14-------------12-----------------|

|--------------------------------------------|
|--------------------------------------------|
|--------------------------------------------|
|-18-16-14~~~--------------------------------|
|-------------17-19-17----17-16----17-16-----|
|----------------------19-------19-------19--|

|----------------------------------------|
|----------------------------------------|
|----------------------------------------|
|---------------------16-------16--------|
|/19-17-16-/19-17-19-----19-17----19-17--|
|----------------------------------------|

|--------------|
|--------------|
|--------------|
|-18-/19-/21~~~|
|--------------|
|--------------|

Puente

Guitarra 1

        |_______ todo esto dos tiempos ________|

|-------|-(8 tiempos)|-(4 tiempos)|-(4 tiempos)|
|-------|------------|------------|------------|
|-h11h13|.t14p11h13-.|.t16p11h13--|.t18p11h13--|
|-------|.----------.|.-----------|.-----------|
|-------|------------|------------|------------|
|-------|------------|------------|------------|

|--(8 tiempos)---|--(8 tiempos)---|----------|
|----------------|----------------|----------|
|.-t14p13p11h13-.|.-t16p14p13h14-.|14~~~~~~~~|
|.--------------.|.--------------.|----------|
|----------------|----------------|----------|
|----------------|----------------|----------|

Guitarra 2

        |_______ todo esto dos tiempos ________|

|-------|-(8 tiempos)|-(4 tiempos)|-(4 tiempos)|
|-------|------------|------------|------------|
|-------|.----------.|.-----------|------------|
|-------|.----------.|.-----------|------------|
|-------|------------|------------|------------|
|-h14h16|-t17p14h16--|-t19p14h16--|-t21p14h16--|

|--(8 tiempos)---|--(8 tiempos)---|----------|
|----------------|----------------|----------|
|.--------------.|.--------------.|----------|
|.--------------.|.--------------.|----------|
|----------------|----------------|----------|
|--t17p16p14h16--|--t19p17p16h17--|17~~~~~~~~|

Outro

Guitarra 1

|-----------------------------------------------|
|-17-15-14-15----17-15-14-15----17-15-14-15-17~~|
|-----------------------------------------------|
|-------------16-------------14-----------------|
|-----------------------------------------------|
|-----------------------------------------------|

|-16-14------------------------|
|-------17~~~-15-17-15-14------|
|-------------------------14~~~|
|------------------------------|
|------------------------------|
|------------------------------|

|-----------------------------------------------|
|-17-15-14-15----17-15-14-15----17-15-14-15-17~~|
|-----------------------------------------------|
|-------------16-------------14-----------------|
|-----------------------------------------------|
|-----------------------------------------------|

|-16-14-------------------|
|-------17~~~-15-17-15-14-|
|-------------------------|
|-------------------------|
|-------------------------|
|-------------------------|

Guitarra 2

|-----------------------------------------------|
|-----------------------------------------------|
|-----------------------------------------------|
|-14-------------14-------------14----------14~~|
|----17-16-17-------17-16-17-------17-16-17-----|
|-------------14-------------12-----------------|

|------------------------------|
|------------------------------|
|------------------------------|
|-18-16-14~~~----14------------|
|-------------17----17-16------|
|-------------------------17~~~|

|-----------------------------------------------|
|-----------------------------------------------|
|-----------------------------------------------|
|-14-------------14-------------14----------14~~|
|----17-16-17-------17-16-17-------17-16-17-----|
|-------------14-------------12-----------------|

|-------------------------|
|-------------------------|
|-------------------------|
|-18-16-14~~~----14-------|
|-------------17----17-16-|
|-------------------------|

            
            
Suggest correction
Creating personal tab
Creating personal tab
You can edit any tab online and save it as your Personal.

You can edit, replace or remove any tab part or add personal notes – all changes will be seen only by you.

Personal tabs can be accessed anytime from any device, even offline.
Learn more »
Give kudos to tab author, rate the tab!
1 2 3 4 5
comments
print report bad tab
guest
You may want to rate the tab now too:
select rating
Wanna post a correction for this tab? Suggest correction