Oops, an error
Loading. Please wait.

Work tab

by 123
478 views 1 this week
no commentswrite comment
1 2 3 4 5
2 more votes to show rating
add to favorites
×
Save as Personal and add changes to this tab that will be seen only by you. Learn more ›
×
You can save this tab as Personal to edit and correct it or add notes. All changes will be seen only by you. Learn more »
launch autoscroll
font size
0
reset
how to read this tab
guitar tuner
edit
Autoscroll
slow
fast
+/-
esc
set tempo
stop
Author
Difficulty
-------------------------------------------------------------------------------
                             Work - 1,2,3
-------------------------------------------------------------------------------
Tabbed by:sir-rex-a-lot

Tuning:Standard

(Intro)(Rhythm Guitar)(He uses some weird effect I can't quite figure out):
   D         D                 D         D
e|-5-x-x-x-x-5-x-x-x-x-x-x-x-x-5-x-x-x-x-5-x-x-x-x-x-x-x-x----|
B|-7-x-x-x-x-7-x-x-x-x-x-x-x-x-7-x-x-x-x-7-x-x-x-x-x-x-x-x----|
G|-7-x-x-x-x-7-x-x-x-x-x-x-x-x-7-x-x-x-x-7-x-x-x-x-x-x-x-x----|x3
D|-7-x-x-x-x-7-x-x-x-x-x-x-x-x-7-x-x-x-x-7-x-x-x-x-x-x-x-x----|
A|-5-x-x-x-x-5-x-x-x-x-x-x-x-x-5-x-x-x-x-5-x-x-x-x-x-x-x-x----|
E|------------------------------------------------------------|
   G         G                 G         G
e|-3-x-x-x-x-3-x-x-x-x-x-x-x-x-3-x-x-x-x-3-x-x-x-x-x-x-x-x----|
B|-3-x-x-x-x-3-x-x-x-x-x-x-x-x-3-x-x-x-x-3-x-x-x-x-x-x-x-x----|
G|-0-x-x-x-x-0-x-x-x-x-x-x-x-x-0-x-x-x-x-0-x-x-x-x-x-x-x-x----|
D|-0-x-x-x-x-0-x-x-x-x-x-x-x-x-0-x-x-x-x-0-x-x-x-x-x-x-x-x----|
A|-2-x-x-x-x-2-x-x-x-x-x-x-x-x-2-x-x-x-x-2-x-x-x-x-x-x-x-x----|
E|-3-x-x-x-x-3-x-x-x-x-x-x-x-x-3-x-x-x-x-3-x-x-x-x-x-x-x-x----|

(Intro)(Lead Guitar):
   D          D                      D          D
e|------------------------------------------------------------------------|
B|------------------------------------------------------------------------|
G|----9-11~----9-11~--11-14-11-9---------9-11~----9-11~--11-14-11-9-------|
D|-12-------12-------------------12---12-------12-------------------12-9--|
A|------------------------------------------------------------------------|
E|------------------------------------------------------------------------|
   G                 G
e|------------------------------------------|
B|------------------------------------------|
G|-11---------------11-11~------------------|X2
D|----9-12-7-9-------------9-12-7-9---------|
A|-------------9-12-----------------9-12----|
E|------------------------------------------|

(Verse)(Rhythm Guitar)(More Weird effects):
 "God knows how I'm going to take it so hard, Why he left driving in his..."
e|---------------------------------------------------------------------------|
B|---------------------------------------------------------------------------|
G|---------------------------------------------------------------------------|
D|---------------------------------------------------------------------------|
A|-5-5-5-5-5-5-5-5-5-5-5-5-5-5-5-5-5-5-5-5-5-5-5-5-5-5-5-5-5-5-5-5-5-5-5-5-5-|
E|---------------------------------------------------------------------------|

"...crystal clear car"                 "The age of Sinatra still exists in some bars"
e|----------------------------------------------------------------------------------------------|
B|-------------------------------------15-15-15-15-15-15-15-15-15-15-15-15-15-15-15-15-15-15-15-|
G|-------------------------------------16-16-16-16-16-16-16-16-16-16-16-16-16-16-16-16-16-16-16-|
D|-------------------------------------16-16-16-16-16-16-16-16-16-16-16-16-16-16-16-16-16-16-16-|
A|-10-10-10-10-10-10-10-10-10-10-10-10-14-14-14-14-14-14-14-14-14-14-14-14-14-14-14-14-14-14-14-|
E|----------------------------------------------------------------------------------------------|

  "I've been working with my hand so far"
e|-----------------------------------------------------------|
B|-----------------------------------------------------------|
G|-----------------------------------------------------------|
D|-----------------------------------------------------------|
A|-10-10-10-10-10-10-10-10-10-12-12-12-12-12-12-12-12-12-12--|
E|-----------------------------------------------------------|


(Chorus)
Lead Pays the intro while the rhythm plays this:
   D         D                 D         D
"I work....I work...         I Work... I Work...       for..."
e|-5-x-x-x-x-5-x-x-x-x-x-x-x-x-5-x-x-x-x-5-x-x-x-x-x-x-x-x----|
B|-7-x-x-x-x-7-x-x-x-x-x-x-x-x-7-x-x-x-x-7-x-x-x-x-x-x-x-x----|
G|-7-x-x-x-x-7-x-x-x-x-x-x-x-x-7-x-x-x-x-7-x-x-x-x-x-x-x-x----|
D|-7-x-x-x-x-7-x-x-x-x-x-x-x-x-7-x-x-x-x-7-x-x-x-x-x-x-x-x----|
A|-5-x-x-x-x-5-x-x-x-x-x-x-x-x-5-x-x-x-x-5-x-x-x-x-x-x-x-x----|
E|------------------------------------------------------------|

   G         G                 G         G
"..You...for you...        for you...for you
e|-3-x-x-x-x-3-x-x-x-x-x-x-x-x-3-x-x-x-x-3-x-x-x-x-x-x-x-x----|
B|-3-x-x-x-x-3-x-x-x-x-x-x-x-x-3-x-x-x-x-3-x-x-x-x-x-x-x-x----|
G|-4-x-x-x-x-4-x-x-x-x-x-x-x-x-4-x-x-x-x-4-x-x-x-x-x-x-x-x----|
D|-5-x-x-x-x-5-x-x-x-x-x-x-x-x-5-x-x-x-x-5-x-x-x-x-x-x-x-x----|x2
A|-5-x-x-x-x-5-x-x-x-x-x-x-x-x-5-x-x-x-x-5-x-x-x-x-x-x-x-x----|
E|------------------------------------------------------------|


Play the verse again
Play chorus again

(Bridge)(Rhythm Guitar)
   Bm        BM                BM        BM
"I work....I work...         I Work... I Work...       for..."
e|-2-x-x-x-x-2-x-x-x-x-x-x-x-x-2-x-x-x-x-2-x-x-x-x-x-x-x-x----|
B|-3-x-x-x-x-3-x-x-x-x-x-x-x-x-3-x-x-x-x-3-x-x-x-x-x-x-x-x----|
G|-4-x-x-x-x-4-x-x-x-x-x-x-x-x-4-x-x-x-x-4-x-x-x-x-x-x-x-x----|
D|-4-x-x-x-x-4-x-x-x-x-x-x-x-x-4-x-x-x-x-4-x-x-x-x-x-x-x-x----|
A|------------------------------------------------------------|
E|------------------------------------------------------------|

(Lead Guitar):
 Rhythm Chords:
  A  A  A  A A  A  A  A
e|--------------10------------|
B|-----------10----12-10------|
G|------9-11------------------|
D|-9-12-----------------------|
A|----------------------------|
E|----------------------------|

(Outro)
  D/F#       D/F#              D/F#      D/F#
"One’s one, that I will say to you"
e|-2-x-x-x-x-2-x-x-x-x-x-x-x-x-2-x-x-x-x-2-x-x-x-x-x-x-x-x-2-|
B|-3-x-x-x-x-3-x-x-x-x-x-x-x-x-3-x-x-x-x-3-x-x-x-x-x-x-x-x-3-|
G|-2-x-x-x-x-2-x-x-x-x-x-x-x-x-2-x-x-x-x-2-x-x-x-x-x-x-x-x-2-|
D|-4-x-x-x-x-4-x-x-x-x-x-x-x-x-4-x-x-x-x-4-x-x-x-x-x-x-x-x-4-|
A|-----------------------------------------------------------|
E|-----------------------------------------------------------|
   G         G                 G         G
"It’s a good work, that’s true"
e|-3-x-x-x-x-3-x-x-x-x-x-x-x-x-3-x-x-x-x-3-x-x-x-x-x-x-x-x----|
B|-3-x-x-x-x-3-x-x-x-x-x-x-x-x-3-x-x-x-x-3-x-x-x-x-x-x-x-x----|
G|-0-x-x-x-x-0-x-x-x-x-x-x-x-x-0-x-x-x-x-0-x-x-x-x-x-x-x-x----|
D|-0-x-x-x-x-0-x-x-x-x-x-x-x-x-0-x-x-x-x-0-x-x-x-x-x-x-x-x----|x3
A|-2-x-x-x-x-2-x-x-x-x-x-x-x-x-2-x-x-x-x-2-x-x-x-x-x-x-x-x----|
E|-3-x-x-x-x-3-x-x-x-x-x-x-x-x-3-x-x-x-x-3-x-x-x-x-x-x-x-x----|

"One’s one, that I will say to you, And it’s a good work, that’s true."
   D         D                 D         D
e|-5-x-x-x-x-5-x-x-x-x-x-x-x-x-5-x-x-x-x-5-x-x-x-x-x-x-x-x----|
B|-7-x-x-x-x-7-x-x-x-x-x-x-x-x-7-x-x-x-x-7-x-x-x-x-x-x-x-x----|
G|-7-x-x-x-x-7-x-x-x-x-x-x-x-x-7-x-x-x-x-7-x-x-x-x-x-x-x-x----|
D|-7-x-x-x-x-7-x-x-x-x-x-x-x-x-7-x-x-x-x-7-x-x-x-x-x-x-x-x----|
A|-5-x-x-x-x-5-x-x-x-x-x-x-x-x-5-x-x-x-x-5-x-x-x-x-x-x-x-x----|
E|------------------------------------------------------------|

************************************

| /   slide up
| \   slide down
| h   hammer-on
| p   pull-off
| ~   vibrato
| +   harmonic
| x   Mute note
| b   Bend
| pb  Pre-bend
| br  Bend release
| pbr Pre-bend release
| brb Bend release bend

************************************

            
            
Suggest correction
Creating personal tab
Creating personal tab
You can edit any tab online and save it as your Personal.

You can edit, replace or remove any tab part or add personal notes – all changes will be seen only by you.

Personal tabs can be accessed anytime from any device, even offline.
Learn more »
Give kudos to tab author, rate the tab!
1 2 3 4 5
comments
print report bad tab
guest
You may want to rate the tab now too:
select rating
Wanna post a correction for this tab? Suggest correction