Oops, an error
Loading. Please wait.

Viernes 3 Am bass

version 2
version 2

Whole song

1,839 views 3 this week
no commentswrite comment
1 2 3 4 5
2 more votes to show rating
add to favorites
×
Save as Personal and add changes to this tab that will be seen only by you. Learn more ›
×
You can save this tab as Personal to edit and correct it or add notes. All changes will be seen only by you. Learn more »
launch autoscroll
font size
0
reset
guitar tuner
edit
Autoscroll
slow
fast
+/-
esc
set tempo
stop
Author
Difficulty
Unregistered
intermediate
Viernes 3AM - Seru Giran

 (Comienza sin bajo)
 La fiebre de un sábado azul
 y un domingo sin tristezas
 Esquivas a tu corazón
 y destrozas tu cabeza
 Y en tu voz, sólo un pálido adios
 Y el reloj, en tu puño marco, las tres...


  El sueño de un un sol y de un mar...

 G ----------------------------------------|
 D ----------------------------------------|
 A -----5-----------7-8--------------------|
 E ----------------------------------------|

  Y una vida peligrosa...

 G ----------------------------------------|
 D ------------------10--------------------|
 A -----3--------/10-----------------------|
 E --1-------------------------------------|

  Cambiando lo amargo por miel y la gris ciudad por rosas

 G ------------------------------------------------------|
 D -----/7-------------------------------/5--------------|
 A ----------------/8-/8-------------3------3------------|
 E ----------------------------1-------------------------|

  Te hace bien...           Tanto como hace mal...

 G -----------------/15---12----------------------|
 D --5--------------------------------------------|
 A -----------------/13---10------3---------------|
 E ------(3)--------------------------------------|

  Te hace odiar...          Tanto como querer...     Y más...

 G -----------------17--19--14\12-----------------------------------|
 D ------------------------------------5---5------5---5-----5---5---|
 A --3-3------------15--17--12\10----3---3---3--3---3---3-----------|
 E ------3------------------------------------------------3---3---3-|

  Cambiaste de tiempo y de amor, y de música y de ideas...

 G --------------------------------------/14----12------/19----|
 D -----5/14\12--------------/14-------------------------------|
 A ------------------------------------------------------------|
 E --3---/12\10------------------------------------------------|

  Cambiaste de sexo y de dios, de color y de frontera...

 G ------------------------------/14--12-----------------------------|
 D -----------/14----14--15-----------------------15--12\10------10--|
 A -----------------------------------------------------------/10----|
 E ------------------------------------------------------------------|

  Pero en sí...     Nada más cambiarás...

 G -----------------------------------------------/10--12----|
 D ------------------------------------10--12--13------------|
 A ---------------------3------------------------------------|
 E ------3-------1-------------------------------------------|

  Y un sensual...    Abandono vendrá...    Y el fin....

 G -----------------------------------------------------------|
 D ------------------------5----5------5----5-------5---5-----|
 A ---------------------3----3----3-3----3----3---------------|
 E ------3-------1-------------------------------3----3---3---|

         Y llevas el caño a tu cien, apretando bien las muelas

 G --------------------------------------------------------------|
 D -----5/12-----------/14-15-------------/17---------14----/17--|
 A --------------------------------------------------------------|
 E --3---/10-----------------------------------------------------|

     Y cierras los ojos y ves...   Todo el mar en primavera

 G -------------------/14--/12--------/14--/12-----------/14--12-|
 D --/15-/14--/12---------------/15-------------12---------------|
 A --------------------------------------------------------------|
 E --------------------------------------------------------------|

    Bang bang bang...             Ojas muertas que caen...

 G -12---17---15-------14\12----------------------/15-12-10---------|
 D ---------------------------------------------------------10-12---|
 A -10---15---13-------12\10--------X-3-----------------------------|
 E -----------------------------------------------------------------|
                                         (No estoy seguro de esa parte)

   Siempre igual...               Los que no pueden más, se van...

 G ----------------19-20--14\12----------------------------------------------|
 D ---------------------------------------5---5---5-----5-----5---5---5---5--|
 A ----------------17-20--12\10------3-3----3---3---3-3---3------------------|
 E ---------------------------------------------------------3---3---3---3----|

   Solo (Tengan en cuenta la expresion)

 G -------------------------17------19--------------------------------------|
 D ------------17-19----/17-----/19---------19--19-17--15-14----------------|
 A ---------17--------------------------/19-------------------/17-15--------|
 E ---15-17------------------------------------------------------------15---|

 G -----------------------17---19---------------------17/19-17/19-17/19-17--|
 D -----15--------19--/17---------/19-17------17-19-------------------------|
 A ---------12/17--------------------------/20------------------------------|
 E --17---------------------------------------------------------------------|

 Tengan en cuenta que Aznar usa un bajo fretless, por eso algunos arrastres

Saludos y disfrunten este tema!
Suggest correction
Creating personal tab
Creating personal tab
You can edit any tab online and save it as your Personal.

You can edit, replace or remove any tab part or add personal notes – all changes will be seen only by you.

Personal tabs can be accessed anytime from any device, even offline.
Learn more »
Give kudos to tab author, rate the tab!
1 2 3 4 5
comments
print report bad tab
guest
Wanna post a correction for this tab? Suggest correction