Oops, an error
Loading. Please wait.

Tempo Perdido tab

version 1
version 1

Whole song

Interactive

2,032 views 6 this week
no commentswrite comment
1 2 3 4 5
x 6
add to favorites
×
Save as Personal and add changes to this tab that will be seen only by you. Learn more ›
×
You can save this tab as Personal to edit and correct it or add notes. All changes will be seen only by you. Learn more »
launch autoscroll
font size
0
reset
how to read this tab
guitar tuner
backing track
0:00
0:00
edit
Autoscroll
slow
fast
+/-
esc
set tempo
stop
Author
Difficulty
Por: Cifraclub

Intro: Em C  Am7  Bm  Em


  C7M
E|-----------------------------------------|
B|------12-------12-------12-------12------|
G|---12-------12-------12-------12---------|
D|10-------10-------10-------10------------|
A|-----------------------------------------|
E|-----------------------------------------|



  Am7                        Bm7
E|------------------------------------------|
B|----8-----8------8------8-------10-----10-|
G|--9-----9------9------9------11------11---|
D|7-----7------7------7------9-------9------|
A|------------------------------------------|
E|------------------------------------------|



                  E5
E|-----------------------------------------|
B|-----10------10--------------------------|
G|--11------11-----------9-----9-----9-----|
D|9-------9------------9---9-----9-----9---|
A|------------------7--------7-----7-------|
E|----------------0------------------------|



  D5
E|-----------------------------------------|
B|-----------------------------------------|
G|--7--------------------------------------|
D|----7------------------------------------|
A|5----------------------------------------|
E|-----------------------------------------|


          C                 Am7
Todos os dias quando acordo
Bm                    Em
    Não tenho mais o tempo que passou
           C          Am7
Mas tenho muito tempo
       Bm              Em
Temos todo o tempo do mundo
C               Am7
  Todos os dias antes de dormir
 Bm                          Em
Lembro e esqueço como foi o dia
 C             Am7
Sempre em frente
     Bm               Em
Não temos tempo a perder
        C          Am7
Nosso suor sagrado
            Bm
É bem mais belo que esse
         Em
Sangue amargo
       C    Am7
E tão sério

       Bm   Em
E selva____gem
       Bm   Em
E selva____gem
       Bm   (passagem)
E selva____gem

 C                   Am7         Bm
Veja o sol dessa manhã tão cinza
         Em                  C
A tempestade que chega é da cor
               Am7
Dos teus olhos
    Bm      Em
Casta_____nhos
            C         Am7
Então me abraça forte
   Bm
E diz mais uma vez
          Em       C         Am7
Que já estamos distantes de tudo
 Bm                  Em
Temos nosso próprio tempo
 Bm                  Em
Temos nosso próprio tempo
 Bm                  Em
Temos nosso próprio tempo
     C         Am7         Bm
Não tenho medo   do escuro
          Em         C        Am7
Mas deixe   as luzes   acesas
  Bm     Em
Ago_____ra
       C                  Am7
O que foi escondido é o que se escondeu
         Bm
E o que foi  prometido
    Em
Ninguém prometeu
          C           Am7
 Nem foi tempo perdido
            Bm     Em
 Somos tão jo_____vens
      Bm     Em         Bm      (passagem)
 Tão jo_____vens  tão jo_______vens

Estrofe:

  C                                        Am7
E|------------------------------------------|
B|------1-1-1---0-2--------1-----3-----1----|
G|----0------------------0---0-----0-----0--|
D|--2---------2--------2-------2-----2----2-|
A|3------------------0----------------------|
E|------------------------------------------|



  Bm7                   Em
E|--------------------------------2----3----|
B|------0-3-----1-------------0-----0----0--|
G|----2----2------2---------0---0----0----0-|
D|--0--------0------0-----2-----------------|
A|2-------------------2---------------------|
E|----------------------0-------------------|


Variação:

  Am7
E|-----------------------------------------|
B|------1---------3------------------------|
G|----0---0-----0---0----------------------|
D|--2-------2/4----------------------------|
A|0----------------------------------------|
E|-----------------------------------------|


Passagem:
     H.N      . . . .

E|-----------------------------------------|
B|----12----------7------------------------|
G|----12--------7---7----------------------|
D|----12------7----------------------------|
A|-----------------------------------------|
E|0----------------------------------------|


  H.N
E|-----------------------------------------|
B|7----------------------------------------|
G|7----------------------------------------|
D|7----------------------------------------|
A|-----------------------------------------|
E|-----------------------------------------|
Suggest correction
Creating personal tab
Creating personal tab
You can edit any tab online and save it as your Personal.

You can edit, replace or remove any tab part or add personal notes – all changes will be seen only by you.

Personal tabs can be accessed anytime from any device, even offline.
Learn more »
comments
print report bad tab
guest
You may want to rate the tab now too:
select rating
Wanna post a correction for this tab? Suggest correction