Oops, an error
Loading. Please wait.

Murder Was The Case That They Gave Me tab

version 2
version 2

Whole song

244 views 3 this week
1 commentread comment
1 2 3 4 5
1 last vote to show rating
add to favorites
×
Save as Personal and add changes to this tab that will be seen only by you. Learn more ›
×
You can save this tab as Personal to edit and correct it or add notes. All changes will be seen only by you. Learn more »
launch autoscroll
font size
0
reset
how to read this tab
guitar tuner
edit
Autoscroll
slow
fast
+/-
esc
set tempo
stop
Murder Was The Case That They Gave Me
LeATHERMOUTH
jjjddd

Drop C

D|-----------------------------------------------|
A|-----------------------------------------------|
F|-----------------------------------------------|
C|---------3---------3---------3--6--6-6-5--5-5--|
G|-0-0-3h5---0-0-3h5---0-0-3h5-------------------|
C|-0-0-------0-0-------0-0-----------------------|
                                                   x3
D|-----------------------------------------------|
A|-----------------------------------------------|
F|--------------------------------8--8-8-8--7----|
C|---------3---------3---------3--8--8-8-8--7----|
G|-0-0-3h5---0-0-3h5---0-0-3h5----6--6-6-6--5----|
C|-0-0-------0-0-------0-0-----------------------|



D|--------------------------------------------------------|
A|--------------------------------------------------------|
F|-------------------------------------------8--8-8-8--7--|
C|-0-0-----------0-0-----------0-0-----------8--8-8-8--7--|x4
G|-0-0-0-0-0-0-0-0-0-0-0-0-0-0-0-0-0-0-0-0-0-6--6-6-6--5--|
C|-0-0-0-0-0-0-0-0-0-0-0-0-0-0-0-0-0-0-0-0-0--------------|
       * * * * *     * * * * *     * * * * *


D|-----------------------------------------------|
A|-----------------------------------------------|
F|-----------------------------------------------|
C|---------3---------3---------3--6--6-6-5--5-5--|
G|-0-0-3h5---0-0-3h5---0-0-3h5-------------------|
C|-0-0-------0-0-------0-0-----------------------|
                                                   x2
D|-----------------------------------------------|
A|-----------------------------------------------|
F|--------------------------------8--8-8-8--7----|
C|---------3---------3---------3--8--8-8-8--7----|
G|-0-0-3h5---0-0-3h5---0-0-3h5----6--6-6-6--5----|
C|-0-0-------0-0-------0-0-----------------------|



D|--------------------------------------------------------|
A|--------------------------------------------------------|
F|-------------------------------------------8--8-8-8--7--|
C|-0-0-----------0-0-----------0-0-----------8--8-8-8--7--|x4
G|-0-0-0-0-0-0-0-0-0-0-0-0-0-0-0-0-0-0-0-0-0-6--6-6-6--5--|
C|-0-0-0-0-0-0-0-0-0-0-0-0-0-0-0-0-0-0-0-0-0--------------|
       * * * * *     * * * * *     * * * * *

solo

Rhythm guitar 
D|-----------------------------------------------------------------------------------------|
A|-----------------------------------------------------------------------------------------|
F|-----------------------5--5-5--5-5--5--5-5-5-----------------------8--8-8--8-8--8--8-8-8-|
C|-0--0-0--0-0--0--0-0-0-5--5-5--5-5--5--5-5-5-0--0-0--0-0--0--0-0-0-8--8-8--8-8--8--8-8-8-|
G|-0--0-0--0-0--0--0-0-0-3--3-3--3-3--3--3-3-3-0--0-0--0-0--0--0-0-0-6--6-6--6-6--6--6-6-6-|
C|-0--0-0--0-0--0--0-0-0-----------------------0--0-0--0-0--0--0-0-0-----------------------|
lead guitar
D|---------------------------------------------------------------------------15t-----16t---|
A|-18t------------------17t--------------------15t-------------------16t-------------------|
F|-----------------------------------------------------------------------------------------|
C|-----------------------------------------------------------------------------------------|
G|-----------------------------------------------------------------------------------------|
C|-----------------------------------------------------------------------------------------|

Rhythm guitar 
D|-------------------------------------------------------------------------------------------|
A|-------------------------------------------------------------------------------------------|
F|-----------------------5--5-5--5-5--5--5-5-5-----------------------8--8-8--8-8--8-8-8------|
C|-0--0-0--0-0--0--0-0-0-5--5-5--5-5--5--5-5-5-0--0-0--0-0--0--0-0-0-8--8-8--8-8--8-8-8-0~~~-|
G|-0--0-0--0-0--0--0-0-0-3--3-3--3-3--3--3-3-3-0--0-0--0-0--0--0-0-0-6--6-6--6-6--6-6-6-0~~~-|
C|-0--0-0--0-0--0--0-0-0-----------------------0--0-0--0-0--0--0-0-0--------------------0~~~-|
lead guitar
D|---------------------------------------------------------------------------15t-----16/22/\-|
A|-18t------------------17t--------------------15t-------------------16t---------------------|
F|-------------------------------------------------------------------------------------------|
C|-------------------------------------------------------------------------------------------|
G|-------------------------------------------------------------------------------------------|
C|-------------------------------------------------------------------------------------------|
                                                                        [echo/delay effect]^

-back to rhythm guitar-


end

D|---------------|
A|---------------|
F|---------------|
C|-8-8-8---------|x3
G|-6-6-6--0~~~~--|
C|--------0~~~~--|

the rhythm on this is kinda tricky, sorry if its confusing
D|------------------------------------------------------------------------------|
A|------------------------------------------------------------------------------|
F|------------------------------------------------------------------------------|
C|---8---8---8--8-8-8---------------8-8-8--------------8-8-8--------------8-8-8-|x2
G|-0-6-0-6-0-6--6-6-6-0--0-0-0-0-0--6-6-6-0--0-0-0-0-0-6-6-6-0--0-0-0-0-0-6-6-6-|
C|-0---0---0----------0--0-0-0-0-0--------0--0-0-0-0-0-------0--0-0-0-0-0-------|

D|--------------------------------------------------------|
A|--------------------------------------------------------|
F|--------------------------------------------------------|
C|---8---8---8--8-8-8-------8-8-8-------8-8-8-------8-8-8-|x2
G|-0-6-0-6-0-6--6-6-6-0~~~~-6-6-6-0~~~~-6-6-6-0~~~~-6-6-6-|
C|-0---0---0----------0~~~~-------0~~~~-------0~~~~-------|

D|------------------------------------------------------------------------------|
A|------------------------------------------------------------------------------|
F|------------------------------------------------------------------------------|
C|---8---8---8--8-8-8----8---8---8--8-8-8----8---8---8--8-8-8-0~~~~~~~~~~~~~~~~-|
G|-0-6-0-6-0-6--6-6-6--0-6-0-6-0-6--6-6-6--0-6-0-6-0-6--6-6-6-0~~~~~~~~~~~~~~~~-|
C|-0---0---0-----------0---0---0-----------0---0---0----------0~~~~~~~~~~~~~~~~-|

            
            
Suggest correction
Creating personal tab
Creating personal tab
You can edit any tab online and save it as your Personal.

You can edit, replace or remove any tab part or add personal notes – all changes will be seen only by you.

Personal tabs can be accessed anytime from any device, even offline.
Learn more »
Give kudos to tab author, rate the tab!
1 2 3 4 5
comments
print report bad tab
1 comment total.
-2 reply
disfigured-scum 61 Jul 02, 2014 12:23 PM, edited at 05:07 pm

fag

guest
You may want to rate the tab now too:
select rating
Wanna post a correction for this tab? Suggest correction