Oops, an error
Loading. Please wait.

Bomber tab

version 1
version 1

Whole song

Interactive

13,757 views 42 this week
5 commentsread comments
1 2 3 4 5
x 5
add to favorites
×
Save as Personal and add changes to this tab that will be seen only by you. Learn more ›
×
You can save this tab as Personal to edit and correct it or add notes. All changes will be seen only by you. Learn more »
launch autoscroll
font size
0
reset
how to read this tab
guitar tuner
backing track
0:00
0:00
edit
Autoscroll
slow
fast
+/-
esc
set tempo
stop
Author
Unregistered
Artist: Motorhead
Song: Bomber
Album: Bomber
Tabbed By: Menno Roymans (the doctor)

Tuning: Eb

[Riff 1]
 Bb                 Ab

e|------------------------------------------|
B|------------------------------------------|
G|----9-7~----9-7~------7-5~----7-5~--------|
D|-9-99----9-99------7-77----7-77-----------|
A|-9-9-----9-9-------7-7-----7-7------------|
E|-7-------7---------5-------5--------------|(x4)

[Riff 2]
   Eb
e|------------|
B|------------|
G|-9----------|
D|-9--strum---|
A|-7----------|
E|-0----------|


[Riff 3]
   Bb
e|-------------------------|
B|-------------------------|
G|----9-7~----9-7~---------|
D|-9-99----9-99------------|
A|-9-9-----9-9-------------|
E|-7-------7---------------|(x4)
                                { play 2 times
   Ab
e|-------------------------|
B|-------------------------|
G|----7-5~----7-5~---------|
D|-7-77----7-77------------|
A|-7-7-----7-7-------------|
E|-5-------5---------------|(x4)


[Riff 4]
   Eb   Db   Eb   Cb Db
e|------------------------|
B|------------------------|
G|-9----7----9----5--7----|
D|-9----7----9----5--7----|
A|-7----5----7----3--5----|
E|------------------------|

then play:
2x Riff three
1x Riff four

Under solo play:
2x Riff one
2x Eb - Db
1x Riff 4

then play:
2x Riff three
1x Riff four

play Riff one 'till fade.



************************************

| ~  Vibrato
| b  Bend

************************************

            
            
Suggest correction
Creating personal tab
Creating personal tab
You can edit any tab online and save it as your Personal.

You can edit, replace or remove any tab part or add personal notes – all changes will be seen only by you.

Personal tabs can be accessed anytime from any device, even offline.
Learn more »
comments
print report bad tab
5 comments total. Showing first comments.
0 reply
evilpunk 93 Dec 27, 2005 11:41 AM

½¶¶~~~~~~¯¯é,.¯¯¯¯¯¯¯¯¯¯¯¯¯¯¯¯¯¯¯¯¯¯¯¯¯¯¯¯¯¯¯¯¯~~{{{{~]]][[}[clsd;ajio(I)ajgfsldjsd(THINK)bjfdsbjfdssukyfuyfyufvlouiy8(ITS)sakjflsdfsdf.gv.si;dplugvfspd;ifhdshvgbfds(NOT)jsdoigvh;dsoigvdaui;fsfds~~µ{~µ¯­niv;zdvgbdsug(THAT)fkjsdbfudsujs;dgi

0 reply
rythm boy 10 Apr 19, 2006 05:51 PM

WTF?^

0 reply
Oasis-fanatic 130 Jan 06, 2007 11:25 AM

lol thats what motorhead does to you

guest
Wanna post a correction for this tab? Suggest correction