Oops, an error
Loading. Please wait.

Dlamour Jen Veux Pus tab

4,934 views 15 this week
no commentswrite comment
1 2 3 4 5
1 last vote to show rating
add to favorites
×
Save as Personal and add changes to this tab that will be seen only by you. Learn more ›
×
You can save this tab as Personal to edit and correct it or add notes. All changes will be seen only by you. Learn more »
launch autoscroll
font size
0
reset
how to read this tab
guitar tuner
edit
Autoscroll
slow
fast
+/-
esc
set tempo
stop
eric lapointe
d'l'amour j'en veux pus
ecrie par: alain junior proulx

intro
  C     G/B     Am        Amsus4/G     C      G/B       Am
-----------------------------------------------------------------------|
-1---1---3---3---1----3-----3------0----1---1---3---3----1----1-3------|
---2---2---2---2-2-2--2-2---0--------0----2---2---2---2--2-2--2-2---5--|
-------------------------------2---------------------------------------|
-3---3---2---2---0----0-----------------3---3---2---2----0-------------|
----------------------------3------3-----------------------------------|

riff 1
      la rage au corps                         la mort au coeur
C       G/B      Am     Amsus4/G        C       G/B      Am     Amsus4/G
---------------------------------------------------------------------------|
-1---1---3---3---1---3-----3-------0----1---1---3---3----1---1-3--3---0----|
---2---2---2---2-2-2-2-2---0---------0----2---2---2---2--2-2-2-2--0-----0--|
-------------------------------2------------------------------------2------|
-3---3---2---2---0---0------------------3---3---2---2----0-----------------|
---------------------------3-------3------------------------------3---3----|

        j'te veux encor             J'en vvie et J'en meurt
F        G         C       G/B       F                  Dm7/G     G7
---------------3--------------------------------------------------1----------|
-1---0h1--3--3-----1---1---3---3-----1---1---1---1------6---6-----0-3h5h3-0--|
-2----------0--------2---2---2---2---2-2---2---2---2------5---5------------0-|
---3----------------------------------------------------------------0--------|
------------------=3---3---2---2------------------------5---5----------------|
-1--------3--------------------------1---1----1--1----------------3----------|

faire riff 1
C      G/B                Am   Amsus4/G   C        G/B                   Am
  tu m'jette pi tu m'prend                 mais la c'est une fois de trops

Amsus4/G
F          G                C   G/B   F                  G
veux tu boir toux mon sang            me ronger jusqu'au os

refrain
F        G            Am   Am9   Am/G      F     G             Am  Am9
d'l'amour J'en veux pus                       je m'avoue vincue
                      --------------------|
                      -1---0h1---1---0h1--|
           riff 2     --------------------|              riff 2
                      ---2---------2------|
                      -0------------------|
                      -----------3--------|
F        G             Am  Am9   Am/G   F           G
 d'l'amour j'en peux pus   (riff 2)     ces beau rien qu' ds les rue(repris
                                                                      intro)
C       G/B        Am Amsus4/G    C              G/B            Am Amsus4/G
chus monter si haut                 que chus r'jamais  r'descende

F           G            C   G/B    F                      G
j'mord encore a ta peau              comme au fruits defendu

F       G              Am Am9 Am/G   F        G        Am  Am9  Am/G
d'L'amour j'en vuex pus  (riff 2)     je mavoue vincue    (riff 2)
F         G          Am Am9 Am/G   F            G                Am Am9 Am/G
ta eu c'que ta voulu   (riff 2)    cette fois je r'viendrais pus  (riff 2)

---bridge---

Cm             Cm7/Bb          Cm7/A        Abmaj7
si tu m'trouve etendu un matin su l'plancher
--------------------------------------------------------|
--4-----4-------4-----4-------4-----4--------3-----3----|
-----5-----5-------3-----3-------3--------------1-----1-|  (riff 3)
--------------------------------------------------------|
--3-----3------------------------------------3-----3----|
----------------6-----6-------5-----5-------------------|

Cm                Cm7/Bb         Cm7/A            Amaj7
  ou si tu m'trouve pendu dans ta chambra a coucher       (riff 3)
Fm                  Ab             Bb
Appel pas l'ambulance ni la police mais berce moé en silence
    Ab         Bb
que j'm'asoupisse

---bridge 2---

Cm      Cm7/Bb     Abmaj     Bb7      Cm     Cm7/Bb    Abmaj7    Bb7

Cm      Cm7/Bb     Abmaj7    Abmaj7    Bb7      Bb7

Eb       Eb/D         Cm7        Cm7/Bb
  D'l'amour j'en est bus
-----------------------------------------------|
-8---8----8-----8-----4-----4------4-----4-----|
---8---8-----8-----8-----3-----3------3-----3--|     (riff 4)
-----------------------------------------------|
-6---6----5-----5-----3-----3------------------|
-----------------------------------6-----6-----|

Eb              Eb/D         Cm7     Cm7/Bb
  J'm'en suis tellement saoulé   (riff 4)
Ab           Bb            Eb          Eb/D
mais tous ce que j'ai vaicu
---------------------------------------------------|
-4-----4-----6-----6-------8-----8-----8-----8-----|
----5-----5-----7------7------8-----8-----8-----8--|     (riff 5)
---------------------------------------------------|
---------------------------6-----6-----5-----6-----|
-4-----4-----6-----6-------------------------------|
Ab         Bb                Eb    Eb/D
  y a rien que moé qu'il sait  (riff 5)

refrain

Ab         Bb           Cm  Cm/Bb
  D'L'amour J'en veux pus
   Ab      Bb           Cm  Cm/Bb
  r'garde c'que chus devenu
Ab        Bb            Cm  Cm/Bb
  L'amour J,y crois pus
Ab          Bb
  Cest beau rien qu' dans les vues

FIN   Eb      Eb/D    Cm7     Cm7/Bb     Cm7/Bb
     ------------------------------------3---------------|
     -8---8---8---8---4---4---4---4------4---------------|
     ---8---8---8---8---3---3---3---3----3---------------|
     ------------------------------------5---------------|
     -6---6---5---5---3---3---6---6------3---------------|
     ------------------------------------6---------------|


       Cm7/Bb         x = tes doigts

   3  x x x x x x 3fr
   4  - - - - x -
   5  - - x - - -
   6  x - - - - -
   7  - - - - - -
   8  - - - - - -

 ercrie par: alain proulx

            
            
Suggest correction
Creating personal tab
Creating personal tab
You can edit any tab online and save it as your Personal.

You can edit, replace or remove any tab part or add personal notes – all changes will be seen only by you.

Personal tabs can be accessed anytime from any device, even offline.
Learn more »
Give kudos to tab author, rate the tab!
1 2 3 4 5
comments
print report bad tab
guest
Wanna post a correction for this tab? Suggest correction