Oops, an error
Loading. Please wait.

Same Ol Situation intro tab

version 1
version 1

Intro

Whole song

Interactive

8,486 views 6 this week
2 commentsread comments
1 2 3 4 5
x 10
add to favorites
×
Save as Personal and add changes to this tab that will be seen only by you. Learn more ›
×
You can save this tab as Personal to edit and correct it or add notes. All changes will be seen only by you. Learn more »
launch autoscroll
font size
0
reset
how to read this tab
guitar tuner
edit
Autoscroll
slow
fast
+/-
esc
set tempo
stop
d tuning - DGCFAD

Tabbed by: Travis Olson
Email: fender@email.com

INTRO:

D|---|---------------------------------|--------------------------------|
A|---|---------------------------------|--------------------------------|
F|---|-6-6-6-5-5-5-4-4-4-3-3-3---------|---6-6-6-5-5-5-4-4-4-3-3-3------| x2
C|---|---------------------------------|--------------------------------|
G|---|---------------------------------|--------------------------------|
D|---|---------------------------------|--------------------------------|

D|--------------------------------------|--------------------------------|
A|--------------------------------------|--------------------------------|
F|-6~---6--6--6---4~--------------------|--6~---6--6--6---4~-------------|
C|-6~---6--6--6---2~--2-2-2-------------|--6~---6--6--6---2~--2-2-2------|x2
G|-4~---4--4--4---2~--2-2-2-------------|--4~---4--4--4---2~--2-2-2------|
D|--------------------0-0-0-------------|---------------------0-0-0------|

That all for now!
It is very easy, good luck!

            
            
Suggest correction
Creating personal tab
Creating personal tab
You can edit any tab online and save it as your Personal.

You can edit, replace or remove any tab part or add personal notes – all changes will be seen only by you.

Personal tabs can be accessed anytime from any device, even offline.
Learn more »
comments
print report bad tab
2 comments total.
0 reply
SquirrelMasta 70 Apr 02, 2005 07:00 PM

Wayyyy off. If you are trying to do just the intro, here is how it goes.

D|-5-5-5-5-5-5-5-5-5-5-5-5-5-5-5| Repeat 4x
A|-5-5-5-5-4-4-4-4-3-3-3-3-2-2-2|

Verse

D|-----------------------||
A|-----------------------||
F|-2--2-2--2-----------2-: Repeat
C|-2--2-2--2-2--2-2--2-2-: As necessary
G|-0--0-0--0-2--2-2--2-0-||
D|-----------0--0-0--0---||

0 reply
BlkMetal8753 89 Mar 27, 2006 06:32 AM

i play what the first guy said but with a 2 on G string

guest
Wanna post a correction for this tab? Suggest correction