Oops, an error
Loading. Please wait.

I Wish You Were A Girl tab

by 12 Rods
140 views 1 this week
1 commentread comment
1 2 3 4 5
2 more votes to show rating
add to favorites
×
Save as Personal and add changes to this tab that will be seen only by you. Learn more ›
×
You can save this tab as Personal to edit and correct it or add notes. All changes will be seen only by you. Learn more »
launch autoscroll
font size
0
reset
how to read this tab
guitar tuner
edit
Autoscroll
slow
fast
+/-
esc
set tempo
stop
Author
Difficulty
[Intro]

guitar 1
e|------------------------------|
B|------------------------------|
G|----0~-----0~---0---0--0------|
D|---9-----9-----0---0--0--0----| X2
A|--7-----7-----9---9--9--9-----|
E|-8-----8-----8----------------|

guitar 1
e|------------------------------------------|
B|------------------------------------------|
G|----0---0---0---0----0----0----0-----0----|
D|---9---9---9---9----0----0----0-----0-----| X2
A|--7---7---7---7----9----9----9-----9------|
E|-8---8---8---8---10---10---10----10-------|

guitar 2
e|--------------------------------------------------------------------|
B|-0-0-0-0-0-0-0-0-0-0-0-0-0-0-0-0-0-0-0-0-0-0-0-0-0-0-0-0-0-0-0-0----|
G|-0-0-0-0-0-0-0-0-0-0-0-0-0-0-0-0-0-0-0-0-0-0-0-0-0-0-0-0-0-0-0-0----|
D|-4-4-4-4-4-4-4-4-4-4-4-4-4-4-4-4-4-4-4-4-4-4-4-4-4-4-4-4-4-4-4-4----| X2
A|-3-3-3-3-3-3-3-3-3-3-3-3-3-3-3-3-5-5-5-5-5-5-5-5-5-5-5-5-5-5-5-5----|
E|--------------------------------------------------------------------|

[Verse]

e|----------------------------------------------|
B|-0-X-0-0-X-0-0-X-0-0-X-0-X-0-0-X-0-0-X-0-0----|
G|-0-X-0-0-X-0-0-X-0-0-X-0-X-0-0-X-0-0-X-0-0----|
D|---X-----X-----X-----X---X-----X-----X--------|
A|-3-X-3-3-X-3-3-X-3-3-X-5-X-5-5-X-5-5-X-5-5----|
E|----------------------------------------------|

guitar 1
e|------------------------------|
B|------------------------------|
G|----0~-----0~---0---0--0------|
D|---9-----9-----0---0--0--0----| X2
A|--7-----7-----9---9--9--9-----|
E|-8-----8-----8----------------|

guitar 1
e|------------------------------------------|
B|------------------------------------------|
G|----0---0---0---0----0----0----0-----0----|
D|---9---9---9---9----0----0----0-----0-----| X2
A|--7---7---7---7----9----9----9-----9------|
E|-8---8---8---8---10---10---10----10-------|

guitar 2
e|--------------------------------------------------------------------|
B|-0-0-0-0-0-0-0-0-0-0-0-0-0-0-0-0-0-0-0-0-0-0-0-0-0-0-0-0-0-0-0-0----|
G|-0-0-0-0-0-0-0-0-0-0-0-0-0-0-0-0-0-0-0-0-0-0-0-0-0-0-0-0-0-0-0-0----|
D|-4-4-4-4-4-4-4-4-4-4-4-4-4-4-4-4-4-4-4-4-4-4-4-4-4-4-4-4-4-4-4-4----| X2
A|-3-3-3-3-3-3-3-3-3-3-3-3-3-3-3-3-5-5-5-5-5-5-5-5-5-5-5-5-5-5-5-5----|
E|--------------------------------------------------------------------|

[Verse]

e|----------------------------------------------|
B|-0-X-0-0-X-0-0-X-0-0-X-0-X-0-0-X-0-0-X-0-0----|
G|-0-X-0-0-X-0-0-X-0-0-X-0-X-0-0-X-0-0-X-0-0----|
D|---X-----X-----X-----X---X-----X-----X--------|
A|-3-X-3-3-X-3-3-X-3-3-X-5-X-5-5-X-5-5-X-5-5----|
E|----------------------------------------------|

[Chorus]

e|-------------------------------------------------------------------------|
B|-0-0-0-0--0-0-0-0--0-0-0-0--0-0-0-0--0-0-0-0-0-0-0-0--0-0-0-0-0-0-0-0----|
G|-0-0-0-0--0-0-0-0--0-0-0-0--0-0-0-0--0-0-0-0-0-0-0-0--0-0-0-0-0-0-0-0----|
D|-------------------------------------------------------------------------|
A|-2-2-2-2--3-3-3-3--5-5-5-5--5-5-5-5--7-7-7-7-7-7-7-7--7-7-7-7-7-7-7-7----|
E|-------------------------------------0-0-0-0-0-0-0-0--0-0-0-0-0-0-0-0----|

[Verse 3]

e|---------------|
B|---------------|
G|----0~----0~---|
D|---9-----0-----|
A|--7-----9------|
E|-8-----8-------|

************************************

| x   Dead note

************************************

            
            
Suggest correction
Creating personal tab
Creating personal tab
You can edit any tab online and save it as your Personal.

You can edit, replace or remove any tab part or add personal notes – all changes will be seen only by you.

Personal tabs can be accessed anytime from any device, even offline.
Learn more »
Give kudos to tab author, rate the tab!
1 2 3 4 5
comments
print report bad tab
1 comment total.
0 reply
mario9705 10 5 days ago

thanks!!!

guest
You may want to rate the tab now too:
select rating
Wanna post a correction for this tab? Suggest correction