Oops, an error
Loading. Please wait.

Calm ukulele

65 views 1 this week
no commentswrite comment
1 2 3 4 5
3 more votes to show rating
add to favorites
×
Save as Personal and add changes to this tab that will be seen only by you. Learn more ›
×
You can save this tab as Personal to edit and correct it or add notes. All changes will be seen only by you. Learn more »
launch autoscroll
font size
0
reset
transpose
0
reset
display chords
guitar tuner
edit
Autoscroll
slow
fast
+/-
esc
set tempo
stop
Strumming
There is no strumming pattern for this song yet. and get +5 IQ
Maximo Park
Calm (guitar chords & tab)
Tabbed by: Adam D

I'm not 100% sure about this - please submit corrections if you have any -
I think it's a bit better than the other tab up on here tho. also am i an
idiot or does it change key between verse and chorus? (E to D?)

Verse:

E                           C#m              D
How many words did you come up with today?
          A                            E
How many words do you want to hear tonight?

E                     C#m              D
You flare up but beneath lies defeat.
          A                       E
I see your eyes now and they are calm.


Pre-Chorus:

        E             A              D
I've answered enough phones for one life
        E             A              D
I've worn too many ties around my neck


Chorus:

Bm                     A
I wake up and I find a trace of you there.
G                 F#m
So sullen - Your words haunt the air

Bm                     A
I wake up and I find a trace of you there.
G                 F#m
So sullen


Run through above twice, then:

Synth solo over Chorus chords:

e|------------------------------|------------------------------|
B|------------------------------|------------------------------|
G|---14h16---------14h16--------|------------------------------|
D|---------14h16---------14h16--|------------------------------|
A|------------------------------|--12h14---------12h14---------|
E|------------------------------|--------12h14---------12h14---|

e|------------------------------|------------------------------|
B|------------------------------|------------------------------|
G|------------------------------|------------------------------|
D|---------12h14---------12h14--|------------------------------|
A|---12h14---------12h14--------|--12h14---------12h14---------|
E|------------------------------|--------12h14---------12h14---|

Repeat through outro (include chorus vocals), end on

e|-----|
B|-----|
G|--16-|
D|-----|
A|-----|
E|-----|

corrections welcome :)
Suggest correction
Creating personal tab
Creating personal tab
You can edit any tab online and save it as your Personal.

You can edit, replace or remove any tab part or add personal notes – all changes will be seen only by you.

Personal tabs can be accessed anytime from any device, even offline.
Learn more »
Give kudos to tab author, rate the tab!
1 2 3 4 5
comments
print report bad tab
guest
Wanna post a correction for this tab? Suggest correction