Oops, an error
Loading. Please wait.

Via Del Campo ukulele

version 1
version 1

Whole song

Interactive

2,566 views 9 this week
no commentswrite comment
1 2 3 4 5
1 last vote to show rating
add to favorites
×
Save as Personal and add changes to this tab that will be seen only by you. Learn more ›
×
You can save this tab as Personal to edit and correct it or add notes. All changes will be seen only by you. Learn more »
launch autoscroll
font size
0
reset
transpose
0
reset
simplify chords
display chords
guitar tuner
edit
Autoscroll
slow
fast
+/-
esc
set tempo
stop
Strumming
There is no strumming pattern for this song yet. and get +5 IQ
CAPO: 1 (F)


INTRO:
         Am      E7        C         F         Am      E7
e|-------------|---------|---------|---------|-------|-------| 
B|-------------|---------|---------|---------|-------|-------| 
G|---1-1/2-1-2-|-2/4-2-4-|-4/6-4-6-|-6/7-6-4-|-2-1---|-------|  
D|-4-----------|---------|---------|---------|-----4-|-3-1-3-|    Am    E7
A|-------------|---------|---------|---------|-------|-------| 
E|-------------|---------|---------|---------|-------|-------| 


         Am         E7     Am                    
Via del Campo c'è una graziosa
           C        F      G
gli occhi grandi color di foglia
       C         F     C    Am
tutta notte sta sulla soglia
         Dm        E7    Am
vende a tutti la stessa rosa


REEF:
         
e|-----------------| 
B|-2-3--2----2-3—2-|    Am
G|--------2--------| 


   Am         E7    Am
Via del Campo c'è una bambina,
        C        F      G
con le labbra color rugiada,
            C      F       C  Am
gli occhi grigi come la strada
         Dm     E7    Am
nascon fiori dove cammina.


REEF:
         
e|-----------------| 
B|-2-3--2----2-3—2-|    Cm
G|--------2--------| 


        Cm          G7    Cm
Via del Campo c'è una puttana
            Eb      G#     Bb
gli occhi grandi color di foglia
       Eb         G#    Eb    Cm
se di amarla ti vien la voglia
        Fm       G7    Cm
basta prenderla per la mano




      Cm          G7      Cm
E ti sembra di andare lontano
         Eb       G#     Bb
lei ti guarda con un sorriso
        Eb          G#  Eb Cm
non credevi che il paradiso
       Fm          G7    Cm
fosse solo lì al primo piano


INSTRUMENTAL: Cm    G7    Cm
              Eb    G#    Bb
              Eb    G#    Eb    Cm
              Fm    G7    Cm


         Am       E7      Am
Via del Campo ci va un illuso
      C        F   G
a pregarla di maritare
     C       F       C  Am
a vederla salir le scale
         Dm          E7       Am
fino a quando il balcone è chiuso


       Am       E7     Am
Ama e ridi se amor risponde
        C        F      G
piangi forte se non ti sente
        C         F      C   Am
dai diamanti non nasce niente
       Dm   E7        Am
dal letame nascono i fior
        C         F      C   Am
dai diamanti non nasce niente
       Dm   E7        Am
dal letame nascono i fior.


OUTRO:
         Am      E7        C         F         Am      E7
e|-------------|---------|---------|---------|-------|-------| 
B|-------------|---------|---------|---------|-------|-------| 
G|---1-1/2-1-2-|-2/4-2-4-|-4/6-4-6-|-6/9-7-4-|-2-1---|-------|  
D|-4-----------|---------|---------|---------|-----4-|-3-1-3-|    Am    
A|-------------|---------|---------|---------|-------|-------| 
E|-------------|---------|---------|---------|-------|-------| 

            
            
Suggest correction
Creating personal tab
Creating personal tab
You can edit any tab online and save it as your Personal.

You can edit, replace or remove any tab part or add personal notes – all changes will be seen only by you.

Personal tabs can be accessed anytime from any device, even offline.
Learn more »
Give kudos to tab author, rate the tab!
1 2 3 4 5
comments
print report bad tab
guest
Wanna post a correction for this tab? Suggest correction