Oops, an error
Loading. Please wait.

Gravity Metaphorically Clean Section Tab

2,435 views 1 this week
3 commentsread comments
1 2 3 4 5
1 last vote to show rating
add to favorites
×
Save as Personal and add changes to this tab that will be seen only by you. Learn more ›
×
You can save this tab as Personal to edit and correct it or add notes. All changes will be seen only by you. Learn more »
save as personal
new!
launch autoscroll
font size
0
reset
how to read this tab
guitar tuner
Autoscroll
slow
fast
+/-
esc
set tempo
stop
Author
Difficulty
Tuning
novice
C# G# C# F# A# D#
|------------------------------------------|
|--------------4slide2-0-------------------|
|-----0----------------------0---0---------|
|---5---------------------0h2--0h2---------|
|-7-----5h7p0-----------3-----3------------|
|------------------------------------| x 4-|

CHORDS AFTER 2 TIMES

|-3----------3-----5-----3-----------|
|------------------------------------|
|-4----------4-----4-----4-----------|
|-5----------5-----5-----5-----------|
|------------------------------------|
|------------------------------------|
Suggest correction
Give kudos to tab author, rate the tab!
1 2 3 4 5
comments
print report bad tab
3 comments total.
0 reply
norkosaurus 230 May 09, 2014 01:37 PM, edited at 05:39 pm

D#|-------------------------------------|
A#|-------------------------------------|
F#|-------0----0---4\2p0------0---0-----|
C#|-----5-----4------------0h2--0h2-----|
G#|---7------5-----------3-----3--------|
C#|-------------------------------------|

guest
You may want to rate the tab now too:
select rating
Wanna post a correction for this tab? Suggest correction