Oops, an error
Loading. Please wait.

Havent Met You Yet bass

version 2
version 2

Whole song

Interactive

5,378 views 18 this week
3 commentsread comments
1 2 3 4 5
x 4
add to favorites
×
Save as Personal and add changes to this tab that will be seen only by you. Learn more ›
×
You can save this tab as Personal to edit and correct it or add notes. All changes will be seen only by you. Learn more »
launch autoscroll
font size
0
reset
guitar tuner
edit
Autoscroll
slow
fast
+/-
esc
set tempo
stop
Author
Difficulty
Haven't Met You Yet
Bass Tab
Michael Bublé
Album: Crazy Love

Tabbed by th4ilTempo. e-mail: giulio.zabotto@gmail.com

This is a semplified version, but it suits the original version well.

standard tuning

Intro
G|-----------------------3------------------------------------------|
D|---6-3-4---4-3-----4-6-----6-4------------------------------------|
A|-4-------------6---------------6-4--------------------------------|
E|------------------------------------------------------------------|

Verse A
G|------------------------------------------------------------------|
D|------4-44------6-6-----------------------------------------------|
A|-4--4-----6--66-----4-6-------------------------------------------|
E|------------------------------------------------------------------|

Verse B
G|------------------------------------------------------------------|
D|-----------------------------------(6)/8-6-6----------------------|
A|-6-6---6---8-8---8---6-6---6-----4----------8---------------------|
E|-----6---------9---------6-----4----------------------------------|

G|------------------------------------------------------------------|
D|------------------------------------------------------------------|
A|-6-6---6---8-8---8---9-9---9---11-11-11-11-11-11------------------|
E|-----6---------9---------9----------------------------------------|

Chorus
G|------------------------------------------------------------------|
D|----------(6)/8-6---------------3---------------------------------|
A|---4---6-4--------8---4-------4---4--6-68----------1-4-1----------|
E|-2---4--------------2---4-5-6--------------6-64--2-------4--------|

Riff intro
G|-----------------------3------------------------------------------|
D|---6-3-4---4-3-----4-6-----6-4------------------------------------|
A|-4-------------6---------------6-4--------------------------------|
E|------------------------------------------------------------------|

Verse A
G|------------------------------------------------------------------|
D|------4-44-----6--6-4---------------------------------------------|
A|-4---4----6--6-------6--------------------------------------------|
E|------------------------------------------------------------------|

G|------------------------------------------------------------------|
D|------4-44------6-6-----------------------------------------------|
A|-4--4-----6--66------4-6------------------------------------------|
E|------------------------------------------------------------------|

Verse B
G|------------------------------------------------------------------|
D|---------------------------------(6)/8-6-6------------------------|
A|-6-6---6---8-8---8---6-6---6----4---------8-----------------------|
E|----6---------9---------6-----4-----------------------------------|

G|------------------------------------------------------------------|
D|------------------------------------------------------------------|
A|-6-6---6---8-8---8---9-9---9---11-11-11-11-11-11------------------|
E|----6---------9---------9-----------------------------------------|

Chorus
G|----------------------------------------8------10-----------------------|
D|----------(6)/8-6---------------3-----8-----10--------8-----6-----------|
A|---4---6-4--------8---4-------4---4-6-----8---------8-----6-----1-4-1---|
E|-2---4--------------2---4-5-6---------------------6-----4-----2-------4-|

Bridge
G|---------------------------------------------------------13-----13----|
D|-(6)/8--8-7---7-6---6-5---------8-------11-------11----13-----13------|
A|-------8-8---6-6---5-5---8-6--9---8--11----9--11----11-----11---------|
E|----------------------------------------------------------------------|

Trumpet solo
G|------------------------------------------------------------------|
D|------------------------------------------(2)----------------8----|
A|------6-8-9-10-11---------------------------3---3-6/11------8-----|
E|-4--6--------------6-7-8-10-11-8--4-0h4-3-----4----------/6-------|

Verse A
G|------------------------------------------------------------------|
D|-----------------------------(8)/10-8-----------------------------|
A|-8-8-8--10-10--10--8-8-8----6--------10---------------------------|
E|----8--------10-------8---6---------------------------------------|

G|---------------------------------------15-------------------------|
D|-------------------------------------15---------------------------|
A|-8-8-8--10-10--10--11-11--11----13--------------------------------|
E|----8--------10---------11----------------------------------------|

G|------------------------------------------------------------------|
D|-------------------------------(10)/13-10-------------------------|
A|-11-11-11-11------------------8-----------13----------------------|
E|-------------13-13-13-13--6-8-------------------------------------|

G|------------------------------------------------------------------|
D|------------------------------------------------------------------|
A|---------8-10-8-810---------1-6-1---------------------------------|
E|-6-68-10------------8-86--4-------6-------------------------------|

Outro
G|--------58/108-5----------5---------------------------------------|
D|---8-5-8---------8-6--6-8----8-6----------------------------------|
A|-6------------------------------8-6-------------------------------|
E|------------------------------------------------------------------| 4x
Suggest correction
Creating personal tab
Creating personal tab
You can edit any tab online and save it as your Personal.

You can edit, replace or remove any tab part or add personal notes – all changes will be seen only by you.

Personal tabs can be accessed anytime from any device, even offline.
Learn more »
comments
print report bad tab
3 comments total.
0 reply
th4ilTempo 31 Jun 22, 2013 11:50 AM

Trumpet solo
G|------------------------------------------------------------------|
D|-------------------------------------------------------------8----|
A|------6-8-9-10-11--------------------------2-3---3-6/11------8----|
E|-4--6--------------6-7-8-10-11-8--4-0h4-3-----4----------/6-------|

Verse A
G|------------------------------------------------------------------|
D|-----------------------------(8)/10-8-----------------------------|
A|-8-8-8--10-10--10--8-8-8----6--------10---------------------------|
E|----8--------11-------8---6---------------------------------------|

G|---------------------------------------15-------------------------|
D|-------------------------------------15---------------------------|
A|-8-8-8--10-10--10--11-11--11----13--------------------------------|
E|----8--------11---------11----------------------------------------|

G|------------------------------------------------------------------|
D|-------------------------------(10)/13-10-------------------------|
A|-11-11-11-11-13-13-13-13------8-----------13----------------------|
E|--------------------------6-8-------------------------------------|

G|------------------------------------------------------------------|
D|------------------------------------------------------------------|
A|---------8-10-8-810---------3-6-1---------------------------------|
E|-6-68-10------------8-86--4-------6-------------------------------|

Outro
G|--------58/108------------5---------------------------------------|
D|---8-5-8-------6-5----6-8----8-6----------------------------------|
A|-6-----------------8------------8-6-------------------------------|
E|------------------------------------------------------------------| 4x

0 reply
th4ilTempo 31 Jun 22, 2013 11:51 AM

I was so tired when I posted the tab. Now it is correct.

0 reply
Westmark 10 Dec 09, 2014 12:30 PM, edited on June 9 2015, 02:46 pm

You can also play Verse B like this:
I prefer it this way...

G|-----------------------------------------------------------------------------|
D|-----------------------------------------------5/6--6/8----------------------|
A|6---6-----6---8---8-4-/-8---6---6-----6-------6----6-------------------------|
E|------6---------------------------6-------4----------------------------------|

G|-----------------------------------------------------------------------------|
D|-----------------------------------------------------------------------------|
A|6---6-----6---8---8-----8---9---9-----9---11-11-11-11-11-11-11---------------|
E|------6-------------9-------------9------------------------------------------|

guest
You may want to rate the tab now too:
select rating
Wanna post a correction for this tab? Suggest correction