Oops, an error
Loading. Please wait.

Karlek Ar Ett Brev Skickat Tusen Ganger chords

version 2
version 2

Whole song

16,982 views 48 this week
1 commentread comment
1 2 3 4 5
x 17
add to favorites
×
Save as Personal and add changes to this tab that will be seen only by you. Learn more ›
×
You can save this tab as Personal to edit and correct it or add notes. All changes will be seen only by you. Learn more »
launch autoscroll
font size
0
reset
transpose
0
reset
display chords
guitar tuner
edit
Autoscroll
slow
fast
+/-
esc
set tempo
stop
Strumming
There is no strumming pattern for this song yet. and get +5 IQ
[Intro]
Bb Dm Gm Dm Eb Bb F

Pianointrot
e|-18-----------------------------------------------|
B|----18-16-15--------------------------------------|
G|-------------15--15-------------------------------|
D|-------------------15-13-12-8--8------------------|
A|---------------------------------8----------------|
E|-----------------------------------6--------------|

Gitarrsolo
e|---------------------------------------------------------------------------------------|
B|-------11-13-13b---------11-13-15-13-11-------------------------------11-13/15-13-15-13|
G|-10h12-------------10h12----------------12-10-------------------10/12------------------|
D|----------------------------------------------12/10------ 10/12------------------------|
A|---------------------------------------------------13~--13-----------------------------|
E|---------------------------------------------------------------------------------------|

e|--------------------------------------------------------------------------|
B|-11-13-11-13-13b-11-------------------------------------------------------|
G|--------------------12-10--12-10----10------------------------------------|
D|--------------------------------12----12-10-------------------------------|
A|-------------------------------------------13-----------------------------|
E|--------------------------------------------13----------------------------|
             Bb
 Vad jag bryr mig om nu
                 Dm 
 är att du kommer nära mig 
Gm              Dm                Eb
 även om det är försent att älska dig 
            Bb           F         
 Vad jag bryr mig om nu 
Cm           Gm       Eb        
 är att från samma säng 
             F       Bb
 lyssna till samma regn 

Bb Dm

                 Bb
 Vad jag bryr mig om nu 
          Dm 
 är att få ut dig ur skallen 
Gm                    Dm                 Eb
 är att aldrig ge hela hjärtat för kärlek igen  
        Bb                     F                  
 den tar slut från kyss till kyss 
                 Cm              
 Vad jag bryr mig om nu
Gm             Eb          F    Bb 
 är att aldrig ge hjärtat rakt ut 


 Bb Dm Eb Bb F

 Bb Dm Gm Eb Cm Gm Eb Bb F  x2
 

              Bb
 Vad jag bryr mig om nu
Dm 
 är att du ligger vaken 
Gm                 Dm              Eb
 i morgontimmen när regnet slår mot fönstret 
         Bb                         F             
 och det låter som om det går på dig 
           Cm                 
 Vad jag bryr mig om nu
        Gm             Eb
 är att du då ser det 
             F           Bb
 hur smutsigt livet blivit 

Bb Dm 

                  Bb
 Och vad jag bryr mig om nu 
Dm                        Gm
 är att se din blick så sårad
         Dm             Eb 
 när alla löften klingar falskt
              Bb           F 
 nästa gång du lovar någon allt
                 Cm 
 Vad jag bryr mig om nu
   Gm             Eb 
 i dina armar om mig
                 F                     Bb 
 även om jag vet att jag måste glömma dig 


 Bb Dm Gm Eb Cm Gm Eb Bb F


Bb                                 Dm
 Vad jag bryr mig om är att se dig gråta 
               Gm
 för jag har gråtit
        F         Eb      
 och du ringde aldrig
Cm                     Gm               Eb 
 Vad jag bryr mig om är att du kallar på mig 
                   F                    Bb
 även om jag inte kommer tillbaks till dig 

Bb                                   Dm
 Vad jag bryr mig om är att se som i slow-motion
                    Gm 
 när du går sönder inuti
    F              Eb 
 så som jag gjorde nyss
Cm                     Gm               Eb 
 Vad jag bryr mig om är att du kallar på mig
                   F                    Bb                           
 även om jag inte kommer tillbaka till dig 

Bb
 Vad jag bryr mig om
                Dm 
 är att höra dig andas
                 Gm 
 veta att du är nära
    F         Eb 
 förlåt, nu slutar jag 
Cm                     Gm               Eb
 Vad jag bryr mig om är att du kallar på mig 
               F                     Bb
 även om inte kommer tillbaks till dig 

Bb   Dm   Gm 
 säg nånting
Bb         Eb
 säg nånting 

Cm                     Gm               Eb
 Vad jag bryr mig om är att du kallar på mig
                   F                    Bb 
 även om jag inte kommer tillbaks till dig 

Bb, Dm, Gm, Eb 

Cm                     Gm               Eb
 Vad jag bryr mig om är att du kallar på mig
                   F                    Bb 
 även om jag inte kommer tillbaks till dig



************************************

| b  Bend
| /  Slide up
| h  Hammer-on
| ~  Vibrato   

************************************
Suggest correction
Creating personal tab
Creating personal tab
You can edit any tab online and save it as your Personal.

You can edit, replace or remove any tab part or add personal notes – all changes will be seen only by you.

Personal tabs can be accessed anytime from any device, even offline.
Learn more »
comments
print report bad tab
1 comment total.
+1 reply
Teddy_Picker 150 Dec 18, 2015 11:49 AM, edited at 04:49 pm

Bra!

guest
You may want to rate the tab now too:
select rating
Wanna post a correction for this tab? Suggest correction