Oops, an error
Loading. Please wait.

Hier In Der Kneipe tab

2,684 views 24 this week
1 commentread comment
1 2 3 4 5
x 6
add to favorites
×
Save as Personal and add changes to this tab that will be seen only by you. Learn more ›
×
You can save this tab as Personal to edit and correct it or add notes. All changes will be seen only by you. Learn more »
launch autoscroll
font size
0
reset
how to read this tab
guitar tuner
edit
Autoscroll
slow
fast
+/-
esc
set tempo
stop
Author
Difficulty
intermediate
Westernhagen  

Hier in der Kneipe fuehl ich mich frei

Tabbed by Fepo in the Key of C ( original)

Tuning: Standard  E A D G B e

The second Guitar are strumming the Verse between the Intro


Intro:  

e||------------------------------------|
B||--8h10p8----------------------------|
G||---------9—--9—9-9\7-5--9-----------|
D||------------------------------------|
A||------------------------------------|
E||------------------------------------|


e||------------------------------------|
B||--8h10p8----------------------------|
G||---------9--—9—9-9\7-5--7-----------|
D||------------------------------------|
A||------------------------------------|
E||------------------------------------|


e||------------------------------------|
B||--8h10p8----------------6-----------|
G||---------9--—9—9-9\7-5--------------|
D||------------------------------------|
A||------------------------------------|
E||------------------------------------|


e||------------8-----------------------|
B||--8/9—-8/9--------------------------|
G||----------------9/7--7--5-----------|
D||------------------------------------|
A||------------------------------------|
E||------------------------------------|
E||------------------------------------|




C
Ich bin aufgewacht in irgend ‘nem Bett

C                                G
Die Frau neben mir die laechelte nett

C                C7                    F
Ich wusste nicht mehr was ich ihr versprach

C                 G                 C
Scheiß Alkohol was hab ich wieder gemacht





Der Erich, der kann jede Menge vertragen
Ich trink’ ja nur Bier wegen meinem Magen
Und hab  ich mein Level dann werde ich frech
Dann ist mir jede, fast jede recht


Du hast leider Recht ich tauge zu nichts
Ein anständiger Mann sitzt am Abendbrottisch
Ich komme fast nie an der Kneipe vorbei
Nur hier in der Kneipe fuehl’ ich mich frei


Nur hier in der Kneipe fuehl’ ich mich frei
Nur hier in der Kneipe fuehl’ ich mich frei
Und hab  ich mein Level dann werde ich frech
dann ist mir jede, fast jede recht  


Na,na,na,na      

and so on with the na na
in sync with the Verse :)

            
            
Suggest correction
Creating personal tab
Creating personal tab
You can edit any tab online and save it as your Personal.

You can edit, replace or remove any tab part or add personal notes – all changes will be seen only by you.

Personal tabs can be accessed anytime from any device, even offline.
Learn more »
comments
print report bad tab
1 comment total.
0 reply
Fepo 807 Jan 01, 2015 06:58 AM

I have made some minor changes

guest
You may want to rate the tab now too:
select rating
Wanna post a correction for this tab? Suggest correction