Oops, an error
Loading. Please wait.

Kung Bore tab

version 1
version 1

Whole song

Interactive

636 views 1 this week
5 commentsread comments
1 2 3 4 5
1 last vote to show rating
add to favorites
×
Save as Personal and add changes to this tab that will be seen only by you. Learn more ›
×
You can save this tab as Personal to edit and correct it or add notes. All changes will be seen only by you. Learn more »
launch autoscroll
font size
0
reset
how to read this tab
guitar tuner
edit
Autoscroll
slow
fast
+/-
esc
set tempo
stop
Author
Difficulty
-----------------------------------------------------------------------------
                          KUNG BORE - Änglagård
-----------------------------------------------------------------------------

Band: Änglagård
Song: Kung Bore
Album: Hybris (1992)

Tabbed by: crimson-dync
Tuning: Standard


[Note: The "." means silence.]



e| |---------------------|---------------------|-------0-------------|
B| |-------0---------2---|-------0-------------|-----3---3-----------|
G|5|-----0---0---3-0---0-|-----0---0-----0---0-|---3-------2---2---2-|
D|4|---2-------2---------|---4-------4-2-------|---------------------|
A| |---------------------|-----------------3---|-1-----------0---3---|
E| |-0-------------------|-0-------------------|---------------------|
   |         (x4)        |        (x2)         |        (x2)         |

e| |---------------------|-------5-------------|-------6-------------|
B| |-------0-------------|---5-6---6-5---6---6-|---5-8---8-5---8---8-|
G|5|-----0---0-----0---0-|-------------7-------|-------------7-------|
D|4|---4-------4-2-------|-----------------8---|-----------------8---|
A| |-----------------3---|-0-------------------|-0-------------------|
E| |-0-------------------|---------------------|---------------------|
   |         (x2)        |        (x2)         |        (x2)         |

e| |-------5-------------|-------6-------------|-------5-------------|
B| |---5-6---6-5---5---5-|---5-8---8-5---5---5-|---5-6---6-5---5---5-|
G|5|-------------7-------|-------------7-------|-------------7-------|
D|4|-----------------8---|-----------------8---|-----------------8---|
A| |-0-------------------|-0-------------------|-0-------------------|
E| |---------------------|---------------------|---------------------|
   |         (x2)        |        (x2)         |        (x2)         |

e| |-------6-------------| |-------2-----2-----2-----|
B| |---5-8---8-5---5---5-| |-----2---2-----2-----2---|
G|5|-------------7-------|6|-----------------4-----4-|
D|4|-----------------8---|4|---4-------4-------------|
A| |-0-------------------| |-------------------------|
E| |---------------------| |-2-----------3-----3-----|
   |         (x2)        | |          (x10)          |


0.57

e| |-------------------------| |-------------------------------|
B| |-13-------12-------------| |----------------------------12-|
G|4|----14-..----12-..-14-11-|5|-..-12----11-------11-12-14----|
D|4|-------------------------|4|-------14----13-14-------------|
A| |-------------------------| |-------------------------------|
E| |-------------------------| |-------------------------------|

e| |-------------------------|-------------------------|
B| |-13-------12-------------|-------------------------|
G|4|----14-..----12-..-14-11-|-..-12-------------------|
D|4|-------------------------|-------14----13----14----|
A| |-------------------------|-------------------------|
E| |-------------------------|-------------------------|

e| |-------------------------| |-------------------------------|
B| |-13-------12-------------| |----------------------------12-|
G|4|-------14-------12-14----|5|-11-12----11-------11-12-14----|
D|4|-------------------------|4|-------14----13-14-------------|
A| |-------------------------| |-------------------------------|
E| |-------------------------| |-------------------------------|

e| |----------------------------| |-------------------------|
B| |-13-------12----------------| |-------------------------|
G|9|-------14------12--14----11-|4|-12----------------------|
D|8|----------------------------|4|-------14----13----14----|
A| |----------------------------| |-------------------------|
E| |----------------------------| |-------------------------|


1.09

e| |-----------------| |---------------------|
B| |-----------------| |---------------------|
G|4|-----------------| |---------------------|
D|4|-5-----4---------|5|-------------------4-|
A| |---7-.---5-.-7-4-|4|-.-5---4-----4-5-7---|
E| |-----------------| |-----7---6-7---------|

e| |-----------------|-----------------|
B| |-----------------|-----------------|
G|4|-----------------|-----------------|
D|4|-5-----4---------|-----------------|
A| |---7-.---5-.-7-4-|-.-5-------------|
E| |-----------------|-----7---6---7---|

e| |-----------------| |---------------------|
B| |-----------------| |---------------------|
G|4|-----------------| |---------------------|
D|4|-5-----4---------|5|-------------------4-|
A| |-----7-----5-7---|4|-4-5---4-----4-5-7---|
E| |-----------------| |-----7---6-7---------|

e| |-------------------| |-----------------|
B| |-------------------| |-----------------|
G|9|-------------------| |-----------------|
D|8|-5-----4-----------|4|-----------------|
A| |-----7-----5-7---4-|4|-5---------------|
E| |-------------------| |-----7---6---7---|


1.21

e| |-12----------------------| |-------------------------------|
B| |----13-..-15-12-..-13----| |-..-12----------------12-13-15-|
G|4|----------------------14-|5|-------12-14-11-12-14----------|
D|4|-------------------------|4|-------------------------------|
A| |-------------------------| |-------------------------------|
E| |-------------------------| |-------------------------------|

e| |-12----------------------|-------------------------|
B| |----13-..-15-12-..-13----|-..-12-------------------|
G|4|----------------------14-|-------12----11----12----|
D|4|-------------------------|-------------------------|
A| |-------------------------|-------------------------|
E| |-------------------------|-------------------------|

e| |-12----------------------| |-------------------------------|
B| |-------13-15----12-13----| |----12----------------12-13-15-|
G|4|-------------------------|5|-14----12-14-11-12-14----------|
D|4|-------------------------|4|-------------------------------|
A| |-------------------------| |-------------------------------|
E| |-------------------------| |-------------------------------|

e| |-12----------------------|-------------------------|
B| |----13-..-15-12-..-13----|-..-12-------------------|
G|4|----------------------14-|-------12----11----12----|
D|4|-------------------------|-------------------------|
A| |-------------------------|-------------------------|
E| |-------------------------|-------------------------|


1.34

e| |-----------------| |-------------------|
B| |---2---------0---| |---------4---------|
G|4|-2---2-----1-----|9|-4-----4---4-------|
D|4|-------4-3-----2-|8|-----4-------4---4-|
A| |-----------------| |---6-----------6---|
E| |-----------------| |-------------------|

e| |-2---------------| |-------------------|
B| |---2---------0---| |---------4---------|
G|4|-----2-----1-----|9|-4-----4---4-------|
D|4|-------4-3-----2-|8|-----4-------4---4-|
A| |-----------------| |---6-----------6---|
E| |-----------------| |-------------------|


1.39
e| |-------------------------| |-------------------------------|
B| |-13-------12-------------| |----------------------------12-|
G|4|----14-..----12-..-14-11-|5|-..-12----11-------11-12-14----|
D|4|-------------------------|4|-------14----13-14-------------|
A| |-------------------------| |-------------------------------|
E| |-------------------------| |-------------------------------|

e| |-------------------------|-------------------------|
B| |-13-------12-------------|-------------------------|
G|4|----14-..----12-..-14-11-|-..-12-------------------|
D|4|-------------------------|-------14----13----14----|
A| |-------------------------|-------------------------|
E| |-------------------------|-------------------------|


1.45
e| |-----------------| |-------------------|
B| |---2---------0---| |---------4---------|
G|4|-2---2-----1-----|9|-4-----4---4-------|
D|4|-------4-3-----2-|8|-----4-------4---4-|
A| |-----------------| |---6-----------6---|
E| |-----------------| |-------------------|


1.48
e| |-12----------------------| |-------------------------------|
B| |-------13-15----12-13----| |----12----------------12-13-15-|
G|4|-------------------------|5|-14----12-14-11-12-14----------|
D|4|-------------------------|4|-------------------------------|
A| |-------------------------| |-------------------------------|
E| |-------------------------| |-------------------------------|

e| |-12----------------------|-------------------------|
B| |----13-..-15-12-..-13----|-..-12-------------------|
G|4|----------------------14-|-------12----11----12----|
D|4|-------------------------|-------------------------|
A| |-------------------------|-------------------------|
E| |-------------------------|-------------------------|


1.54
e| |-----------------| |-------------------|
B| |---2---------0---| |---------4---------|
G|4|-2---2-----1-----|9|-4-----4---4-------|
D|4|-------4-3-----2-|8|-----4-------4---4-|
A| |-----------------| |---6-----------6---|
E| |-----------------| |-------------------|

e| |-2---------------| |-------------------|
B| |---2---------0---| |---------4---------|
G|4|-----2-----1-----|9|-4-----4---4-------|
D|4|-------4-3-----2-|8|-----4-------4---4-|
A| |-----------------| |---6-----------6---|
E| |-----------------| |-------------------|


2.00
e| |-----------------|
B| |-------10------10|
G|4|-----11------11--|
D|4|---11------11----|
A| |-9-------9-------|
E| |-----------------|
   |     (x12)       |


2.21 (x3)
     F#m               Fdim              Em                B
e| |---------5-------|-----------------|-----------------|-----------------|
B| |-----7-----7---7-|---------9-------|---------8-------|---------7-------|
G|4|---6---6-----6---|---7-------7---7-|---9-------9---9-|---8-------8---8-|
D|4|-4---------------|-----9-------9---|-----9-------9---|-----9-------9---|
A| |-----------------|-8-----8---------|-7-----7---------|-9-----9---------|
E| |-----------------|-----------------|-----------------|-----------------|
   |      (x2)       |      (x2)       |      (x2)       |      (x2)       |

3.16
     Bdim              D/F#              Bdim
e| |---------7-------|-----------------|---------7-------|
B| |---6-------6---6-|---------7-------|---6-------6---6-|
G|4|-----7-------7---|---7-------7---7-|-----7-------7---|
D|4|-6-----6---------|-----7-------7---|-6-----6---------|
A| |-----------------|-9-----9---------|-----------------|
E| |-----------------|-----------------|-----------------|
   |      (x2)       |      (x2)       |      (x2)       |

3.26 (x2)
     F#m               Fdim              Em                B
e| |---------5-------|-----------------|-----------------|-----------------|
B| |-----7-----7---7-|---------9-------|---------8-------|---------7-------|
G|4|---6---6-----6---|---7-------7---7-|---9-------9---9-|---8-------8---8-|
D|4|-4---------------|-----9-------9---|-----9-------9---|-----9-------9---|
A| |-----------------|-8-----8---------|-7-----7---------|-9-----9---------|
E| |-----------------|-----------------|-----------------|-----------------|


3.39 (x2)
     F#m               Fdim              Em                B
e| |---------5-------|-----------------|-----------------|-----------------|
B| |-----7-----7---7-|---------9-------|---------8-------|---------7-------|
G|4|---6---6-----6---|---7-------7---7-|---9-------9---9-|---8-------8---8-|
D|4|-4---------------|-----9-------9---|-----9-------9---|-----9-------9---|
A| |-----------------|-8-----8---------|-7-----7---------|-9-----9---------|
E| |-----------------|-----------------|-----------------|-----------------|
   |      (x2)       |      (x2)       |      (x2)       |      (x2)       |


4.06
     Bdim              D/F#              Bdim
e| |---------7-------|-----------------|---------7-------|
B| |---6-------6---6-|---------7-------|---6-------6---6-|
G|4|-----7-------7---|---7-------7---7-|-----7-------7---|
D|4|-6-----6---------|-----7-------7---|-6-----6---------|
A| |-----------------|-9-----9---------|-----------------|
E| |-----------------|-----------------|-----------------|
   |      (x2)       |      (x2)       |      (x2)       |


4.17 (x2)
     F#m               Fdim              Em                B
e| |---------5-------|-----------------|-----------------|-----------------|
B| |-----7-----7---7-|---------9-------|---------8-------|---------7-------|
G|4|---6---6-----6---|---7-------7---7-|---9-------9---9-|---8-------8---8-|
D|4|-4---------------|-----9-------9---|-----9-------9---|-----9-------9---|
A| |-----------------|-8-----8---------|-7-----7---------|-9-----9---------|
E| |-----------------|-----------------|-----------------|-----------------|

4.29
e| |-----------------|-----------------|-------------14--|---14b15-16-.----|
B| |-----------------|-----------------|--------17-------|-----------------|
G|4|---------14b16-.-|-----14b16-14b16-|-16b18-----------|-----------------|
D|4|-----------------|-----------------|-----------------|-----------------|
A| |-----------------|-----------------|-----------------|-----------------|
E| |-----------------|-----------------|-----------------|-----------------|

e| |-----------------|-----------------|-------------14--|---14b15-16-.----|
B| |-----------------|-----------------|--------17-------|-----------------|
G|4|---------14b16-.-|-----14b16-14b16-|-16b18-----------|-----------------|
D|4|-----------------|-----------------|-----------------|-----------------|
A| |-----------------|-----------------|-----------------|-------------7-.-|
E| |-----------------|-----------------|-----------------|-----------------|


4.42
     F#m               A                 C#m
e| |-----------------|-----------------|-----------------|-----------------|
B| |-----------------|-----------------|-----------------|-----------------|
G|4|-----------------|-----------------|-6-7-6---6-------|(6)------.---6-.-|
D|4|-------------6-.-|-7-----6-7-.-9-.-|-------9---------|-----------------|
A| |-9-----7-9-.-----|-----------------|-----------------|-----------------|
E| |-----------------|-----------------|-----------------|-----------------|

     F#m               C#m               A       F#m
e| |-----------------|-----------------|-----------------|-----------------|
B| |-7---------------|-----------------|-----------------|-----------------|
G|4|-------6-7-.-----|-6---------------|-----------------|-----------------|
D|4|-------------9-.-|-------7-9-.-6-.-|-7-9-6-----------|-----------------|
A| |-----------------|-----------------|-------7-9-------|(9)--------------|
E| |-----------------|-----------------|-----------------|-----------------|

e| |---------|
B| |---------|
G|2|---------|
D|4|---------|
A| |(9).-7-.-|
E| |---------|


4.55
     F#m               A                 C#m
e| |-----------------|-----------------|-----------------|-----------------|
B| |-----------------|-----------------|-----------------|-----------------|
G|4|-----------------|-----------------|-6-7-6---6-------|(6)------.---6-.-|
D|4|-------------6-.-|-7-----6-7-.-9-.-|-------9---------|-----------------|
A| |-9-----7-9-.-----|-----------------|-----------------|-----------------|
E| |-----------------|-----------------|-----------------|-----------------|

     F#m     D/F#      C#m     Bm        A       F#m
e| |-----------------|-----------------|-----------------|-----------------|
B| |-7---------------|-----------------|-----------------|-----------------|
G|4|-------6-7-.-----|-6---------------|-----------------|-----------------|
D|4|-------------9-.-|-------7-9-.-6-.-|-7-9-6-----------|-----------------|
A| |-----------------|-----------------|-------7-9-------|(9)--------------|
E| |-----------------|-----------------|-----------------|-----------------|

e| |---------|
B| |---------|
G|2|---------|
D|4|---------|
A| |(9).-----|
E| |---------|


5.08 --2 GUITARs-- (x2)
e| |-------------------------|-12-14-12----12----------|
B| |----------12-14-12-14-15-|-14-15-14-15-14----------|
G|4|-14-13-14-13-14-13-14-16-|----------16-------------|
D|4|-16-15-16----------------|-------------------------|
A| |-------------------------|-------------------------|
E| |-------------------------|-------------------------|

e| |-14----12----------------|-------------------------|
B| |-15-15-14-14-15-12-14----|-12-------12-------------|
G|4|----16----14-16-13-14-14-|-13-13-14-13-14----.-----|
D|4|----------------------16-|----15-16----16----.--14-|
A| |-------------------------|----------------------16-|
E| |-------------------------|-------------------------|


5.21
e| |-------------------------------------|-17-16-14----------------------------|
B| |----------14----14-15-14-15-17----14-|----------17-15-14-------------------|
G|6|-14-13-14----16----------------------|-------------------16-14-13-14-------|
D|4|-------------------------------------|----------------------------------14-|
A| |-------------------------------------|-------------------------------------|
E| |-------------------------------------|-------------------------------------|

e| |-------------------------------------| |-17-16-14----------|
B| |----------14----14-15-14-15-17----14-| |----------17----14-|
G|6|-14-13-14----16----------------------|6|-------------------|
D|4|-------------------------------------|8|-------------------|
A| |-------------------------------------| |-------------------|
E| |-------------------------------------| |-------------------|

e| |-17-16-14----------------------------|
B| |----------17-15-14-------------------|
G|6|-------------------16-14-13-14-------|
D|4|----------------------------------14-|
A| |-------------------------------------|
E| |-------------------------------------|


5.31
e| |-------------------------|-12-14-12----12----------|
B| |----------12-14-12-14-15-|----------15-------------|
G|4|-14-13-14----------------|-------------------------|
D|4|-------------------------|-------------------------|
A| |-------------------------|-------------------------|
E| |-------------------------|-------------------------|

e| |-14----12----------------|-------------------------|
B| |----15----14-15-12-14----|-12-------12-------------|
G|4|----------------------14-|----13-14----14----------|
D|4|-------------------------|-------------------------|
A| |-------------------------|-------------------7--.--|
E| |-------------------------|-------------------------|


5.37
     F#m               A                 C#m
e| |-----------------|-----------------|-----------------|-----------------|
B| |-----------------|-----------------|-----------------|-----------------|
G|4|-----------------|-----------------|-6-7-6---6-------|(6)------.---6-.-|
D|4|-------------6-.-|-7-----6-7-.-9-.-|-------9---------|-----------------|
A| |-9-----7-9-.-----|-----------------|-----------------|-----------------|
E| |-----------------|-----------------|-----------------|-----------------|

     F#m     D/F#      C#m     Bm        A       F#m
e| |-----------------|-----------------|-----------------|-----------------|
B| |-7---------------|-----------------|-----------------|-----------------|
G|4|-------6-7-.-----|-6---------------|-----------------|-----------------|
D|4|-------------9-.-|-------7-9-.-6-.-|-7-9-6-----------|-----------------|
A| |-----------------|-----------------|-------7-9-------|(9)--------------|
E| |-----------------|-----------------|-----------------|-----------------|

e| |---------|
B| |---------|
G|2|---------|
D|4|---------|
A| |(9).-7-.-|
E| |---------|


5.50
     F#m               A                 C#m
e| |-----------------|-----------------|-----------------|-----------------|
B| |-----------------|-----------------|-----------------|-----------------|
G|4|-----------------|-----------------|-6-7-6---6-------|(6)------.---6-.-|
D|4|-------------6-.-|-7-----6-7-.-9-.-|-------9---------|-----------------|
A| |-9-----7-9-.-----|-----------------|-----------------|-----------------|
E| |-----------------|-----------------|-----------------|-----------------|

     F#m     D/F#      C#m     Bm        A       F#m
e| |-----------------|-----------------|-----------------|-----------------|
B| |-7---------------|-----------------|-----------------|-----------------|
G|4|-------6-7-.-----|-6---------------|-----------------|-----------------|
D|4|-------------9-.-|-------7-9-.-6-.-|-7-9-6-----------|-----------------|
A| |-----------------|-----------------|-------7-9-------|(9)--------------|
E| |-----------------|-----------------|-----------------|-----------------|


6.02 --ORGAN-- (repeat and repeat and repeat)

e| |-----14----14----14----14-|-----14----14----14----14-|
B| |---14----14----14----14---|---14----14----14----14---|
G|4|-14----16----14----13-----|-11----13----14----16-----|
D|4|--------------------------|--------------------------|
A| |--------------------------|--------------------------|
E| |--------------------------|--------------------------|


6.57 --ORGAN-- (repeat and repeat and repeat)

e| |-----------------|-----------------|
B| |---2---2---2---2-|---2---2---2---2-|
G|4|-2---4---2---1---|-----1---2---4---|
D|4|-----------------|-4---------------|
A| |-----------------|-----------------|
E| |-----------------|-----------------|

     --GUITAR--
e| |-----------------|-----------------|-----------------|-----------------|
B| |-----------------|-----------------|-----3-.---2-.---|-----3p2-.-2p0-.-|
G|4|-----4p2-.-1-.---|-2-.-2h4p2-.-4-.-|-----4-.---2-.---|-----4p2-.-2p1-.-|
D|4|-----6p4-.-2-.---|-4-.-4h6p4-.-6-.-|-----------------|-----------------|
A| |-----------------|-----------------|-----------------|-----------------|
E| |-----------------|-----------------|-----------------|-----------------|

e| |-----------------|-------8-7-----.-|
B| |-----------------|-----------------|
G|4|-----4p2-.-1-.---|-1h2p1-----------|
D|4|-----6p4-.-2-.---|-2h4p2-----------|
A| |-----------------|-----------------|
E| |-----------------|-----------------|


7.22 (x8)
e| |-7---5-.-4-------|-4-------7---5-.-|
B| |-------------7-.-|-----7-.---------|
G|4|-7---6-.-4-------|-4-------7---6-.-|
D|4|-------------7-.-|-----7-.---------|
A| |-----------------|-----------------|
E| |-----------------|-----------------|


7.47 (x4)
     F#m     E           B
e| |-2-------------0-| |-------------------|
B| |---2---------0---| |---------4---------|
G|4|-----2-----1-----| |-4---------4-------|
D|4|-------4-2-------| |-----4-------4---4-|
A| |-----------------| |---2-----------2---|
E| |-----------------| |-------------------|


8.00 --ORGAN--
e| |-------------|-------------|---2-.-------|-------------|
B| |-------------|-------------|-------2-.---|-------------|
G|3|-2-1-2-.-----|---------2-1-|-2-----------|-2-1-2-------|
D|4|-------------|-------------|-------------|-------------|
A| |-------------|-------------|-------------|-------------|
E| |-------------|-------------|-------------|-------------|

e| |-------------|---2---------|-------------|-----------2-|
B| |-------------|-----2-.-----|-------------|-------------|
G|3|---------2-1-|-2-------2-1-|-2-.---------|-----2-1-2---|
D|4|-------------|-------------|-------------|-------------|
A| |-------------|-------------|-------------|-------------|
E| |-------------|-------------|-------------|-------------|

e| |-------------|-------------| |-----------2-----|
B| |---2-.-------|-------------| |-------1-2---2-.-|
G|3|---------2-1-|-2-.---------|4|-----2-----------|
D|4|-------------|-------------|4|-----------------|
A| |-------------|-------------| |-----------------|
E| |-------------|-------------| |-----------------|


8.13 --GUITAR-- (ORGAN continues)
e| |-------------|-------------|---5-.-------|-------------|
B| |-------------|-------------|-------7-.---|-------------|
G|3|-6-4-6-.-----|---------6-4-|-6-----------|-6-4-6-.-----|
D|4|-------------|-------------|-------------|-------------|
A| |-------------|-------------|-------------|-------------|
E| |-------------|-------------|-------------|-------------|

e| |-------------|---5-4-.-----|-------------|-----------5-|
B| |-------------|-------------|-------------|-------------|
G|3|---------6-4-|-6-------6-4-|-6-.---------|-----6-4-6---|
D|4|-------------|-------------|-------------|-------------|
A| |-------------|-------------|-------------|-------------|
E| |-------------|-------------|-------------|-------------|

e| |-------------|-------------| |-----------5-4-.-|
B| |---7-.-------|-------------| |-----------------|
G|3|---------6-4-|-6-.---------|4|-----6-4-6-------|
D|4|-------------|-------------|4|-----------------|
A| |-------------|-------------| |-----------------|
E| |-------------|-------------| |-----------------|


8.26 (x4)
e| |-------------|-------------|-------------|-5-4---------|
B| |-----3-2-----|-----3-2-----|-----3-2-----|-----7-6-----|
G|3|---2---------|---2---------|---2---------|---------7-6-|  GUITAR
D|4|-4-----------|-4-----------|-4-----------|-------------|
A| |-------------|-------------|-------------|-------------|
E| |-------------|-------------|-------------|-------------|
   |             |             |             |             |
e| |-------------|-----2-1-----|-------------|-2-1---------|
B| |-----3-2-----|---3---------|-----3-2-----|-----3-2-----|
G|3|---2---------|-1-----------|---2---------|---------4-2-|  ORGAN
D|4|-4-----------|-------------|-4-----------|-------------|
A| |-------------|-------------|-------------|-------------|
E| |-------------|-------------|-------------|-------------|


8.46
e| |-5-4---------|-5-4---------|-------------|-------------|
B| |-----7-6-----|-----7-6-----|-------------|-------------|
G|3|---------7-6-|---------7-6-|-------------|-------------|  GUITAR
D|4|-------------|-------------|-7-----------|(7)----------|
A| |-------------|-------------|-------------|-------------|
E| |-------------|-------------|-------------|-------------|
   |             |             |             |             |
e| |-2-1---------|-2-1---------|-------------|-------------|
B| |-----3-2-----|-----3-2-----|-------------|-------------|
G|3|---------4-2-|---------4-2-|-------------|-------------|  ORGAN
D|4|-------------|-------------|-4-----------|(4)----------|
A| |-------------|-------------|-------------|-------------|
E| |-------------|-------------|-------------|-------------|


8.57 (x2)
     F#m                                 Fm/5-
e| |-----------------|-----------------|-----------------|-----------------|
B| |-----------------|-----------------|-----------------|-----------------|
G|4|-----------------|-----------------|-----------------|-----------------|
D|4|-----------------|-----4-.---------|-----------------|-----------------|
A| |-----------------|-----------4-.---|-----------------|-----------------|
E| |-2-2-2-2-2-.-----|-----------------|-1-1-1-1-1-.-----|-----1-1-1-.-----|

     Em                                  B
e| |-----------------|-----------------|-----------------|-----------------|
B| |-----------------|-----------------|-----------------|-----------------|
G|4|-----------------|-----------------|-----------------|---------4-.-----|
D|4|-----------------|-----------------|-----------------|-------4---------|
A| |-----------------|-----------------|-2-2-2-2-2-.-----|-----2-----------|
E| |-0-0-0-0-0-.-----|-----0-.---0-.---|-----------------|-----------------|


9.24 --ORGAN-- (GUITAR continues)
     F#m                                 Fm/5-
e| |-----------------|-10------9-------|-----------------|-----------------|
B| |-10--------------|-12------10------|-9---------------|(9)--------------|
G|4|-11--------------|-----------------|-10--------------|(10)-------------|
D|4|-----------------|-----------------|-----------------|-----------------|
A| |-----------------|-----------------|-----------------|-----------------|
E| |-----------------|-----------------|-----------------|-----------------|

     Em                                  B
e| |-----------------|-----------------|-----------------|-----------------|
B| |-8---------------|---------8-------|-7---------------|(7)--------------|
G|4|-9---------------|-4-------9-------|-4---------------|(4)--------------|
D|4|-----------------|-5---------------|-----------------|-----------------|
A| |-----------------|-----------------|-----------------|-----------------|
E| |-----------------|-----------------|-----------------|-----------------|

     F#m                                 Fm/5-
e| |-----------------|-----------------|-----------------|-10--------------|
B| |-10--------------|-10--------------|-9---------------|-9-------9-------|
G|4|-11--------------|-11------11------|-10--------------|---------10------|
D|4|-----------------|---------11------|-----------------|-----------------|
A| |-----------------|-----------------|-----------------|-----------------|
E| |-----------------|-----------------|-----------------|-----------------|

     Em                                  B
e| |-----------------|-----------------|-----------------|-----------------|
B| |-8---------------|-----------------|-7---------------|(7)--------------|
G|4|-9---------------|-4---------------|-4---------------|(4)--------------|
D|4|-----------------|-5---------------|-----------------|-----------------|
A| |-----------------|-----------------|-----------------|-----------------|
E| |-----------------|-----------------|-----------------|-----------------|


9.50 --GUITAR--
     Am                                  Cm
e| |-----------------|-----------------|-----------------|-----------------|
B| |-----------------|-----------------|-----------------|-----------------|
G|4|-----------------|-----------------|-----------------|-----------------|
D|4|-----------------|-----------------|-----------------|---------5---6---|
A| |-----------------|-----------------|-----------------|-6---8-----------|
E| |-5---------------|-5-----------5-7-|-8---------------|-----------------|

     Gm                                  Dm
e| |-----------------|-----------------|-----------------|-----------------|
B| |-----------------|-----------------|-----------------|-----------------|
G|4|-----------------|-----------------|-----------------|-----------------|
D|4|-5---------------|-----------------|-----------------|-----5---7---8---|
A| |-------------5---|-----------------|-5-----------7---|-8---------------|
E| |-----------------|-3---------------|-----------------|-----------------|

     Am                                  Cm
e| |-----------------|-----------------|-----------------|-----------------|
B| |-----------------|-10--------------|-----------------|-----------------|
G|4|-------------9-9-|-------------9-9-|-----------------|-----------------|
D|4|-7---------------|-----------------|-----------------|---------5---6---|
A| |-----------------|-----------------|-----------------|-6---8-----------|
E| |-----------------|-----------------|-8---------------|-----------------|

     Gm                                  Dm
e| |-----------------|-----------------|-----------------|-----------------|
B| |-----------------|-----------------|-----------------|-----------------|
G|4|-----------------|-----5---7---8---|-----------------|-----------------|
D|4|-5-----------7---|-8---------------|-----------------|-----5---7---8---|
A| |-----------------|-----------------|-5-----------7---|-8---------------|
E| |-----------------|-----------------|-----------------|-----------------|


10.15 --FLUTE--
     Am                                  Cm
e| |-----------------|-----------------|-----------------|-----------------|
B| |-----------------|-----------------|-----------------|-8---------------|
G|4|-----------------|---------9-------|-8---------------|---------8-------|
D|4|-7-----------9---|-10--------------|-------------10--|-----------------|
A| |-----------------|-----------------|-----------------|-----------------|
E| |-----------------|-----------------|-----------------|-----------------|

     Gm                                  Dm --GUITAR--
e| |-----------------|-----------------|-----------------|-----------------|
B| |-----------------|-----------------|-----------------|-----------------|
G|4|-7---------------|-----------------|-----------------|-----------------|
D|4|-------------8---|---------8-------|-7---------------|-------------8---|
A| |-----------------|-10--------------|-------------8---|-5---7---8-------|
E| |-----------------|-----------------|-----------------|-----------------|


10.28 --FLUTE--
     Am                                  Cm
e| |-----------------|-----------------|-----------------|-----------------|
B| |-----------------|-----------------|-----------------|-8---------------|
G|4|-----------------|---------9-------|-8---------------|---------8-------|
D|4|-7-----------9---|-10--------------|-------------10--|-----------------|
A| |-----------------|-----------------|-----------------|-----------------|
E| |-----------------|-----------------|-----------------|-----------------|

     Gm                                  Dm --GUITAR--
e| |-----------------|-----------------|-----------------|-----------------|
B| |-----------------|-----------------|-----------------|-----------------|
G|4|-7---------------|-----------------|-5757575757575757|575--------------|
D|4|-------------8---|---------8-------|-----------------|-----5---7---8---|
A| |-----------------|-10--------------|-5-----------7---|-8---------------|
E| |-----------------|-----------------|-----------------|-----------------|


10.40 --FLUTE--                                            --BASS--
e| |-----------------|-----------------|-----------------|-----------------|
B| |-----------------|-----------------|-----------------|-----------------|
G|4|-9---------------|(9)-------10-9-7-|-7---------------|---------4---.---|
D|4|-----------------|-----------------|-----------------|---3-.-6---------|
A| |-----------------|-----------------|-----------------|-5---------------|
E| |-----------------|-----------------|-----------------|-----------------|

    -FLUTE--                                        --BASS--
e| |-----------------|-----------------|-----------------|-----------------|
B| |-----------------|-----------------|-----------------|-----------------|
G|4|-7---------------|(7)--------9-7---|-7---------------|-----------------|
D|4|-----------------|---------------10|-----------------|-----4---7---\---|
A| |-----------------|-----------------|-------------7---|(7)--------------|
E| |-----------------|-----------------|-----------------|-----------------|


10.53 --GUITAR-- (x3)
e| |-----------------|-----------------|-----------------|-----------------|
B| |-7---------------|-9---10--9---7---|-6-----------7---|-9-----------7---|
G|4|-------------6---|-----------------|-----------------|-----------------|
D|4|-----------------|-----------------|-----------------|-----------------|
A| |-----------------|-----------------|-----------------|-----------------|
E| |-----------------|-----------------|-----------------|-----------------|

e| |-----------------|-----------------|-----------------|-----------------|
B| |-----------------|-7---7-8-7-------|-----------------|-----------------|
G|4|-9---------------|-------------9---|-8---------------|-----------------|
D|4|-------------9---|-----------------|-------------9---|-----------------|
A| |-----------------|-----------------|-----------------|-9-----------.---|
E| |-----------------|-----------------|-----------------|-----------------|


11.31
     F#m
e| |-14------14--.---14------14--.---|-1714--1417--.---1714--1417--.---|
B| |---14--14----------14--14--------|-----14--------------14----------|
G|4|-----11--------------11----------|---------------------------------|
D|4|---------------------------------|---------------------------------|
A| |---------------------------------|---------------------------------|
E| |---------------------------------|---------------------------------|

     Fm/5-
e| |-1613--1316--.---1613--1316--.---|-1613--1316--.---1613--1316--.---|
B| |-----13--------------13----------|-----13--------------13----------|
G|4|---------------------------------|---------------------------------|
D|4|---------------------------------|---------------------------------|
A| |---------------------------------|---------------------------------|
E| |---------------------------------|---------------------------------|

     Em
e| |-1512--1215--.---1512--1215--.---|-1512--1215--.---1512--1215--.---|
B| |-----12--------------12----------|-----12--------------12----------|
G|4|---------------------------------|---------------------------------|
D|4|---------------------------------|---------------------------------|
A| |---------------------------------|---------------------------------|
E| |---------------------------------|---------------------------------|

     B
e| |-1411--1114--.---1411--1114--.---|-1411--1114--.---1411--1114--.---|
B| |-----12--------------12----------|-----12--------------12----------|
G|4|---------------------------------|---------------------------------|
D|4|---------------------------------|---------------------------------|
A| |---------------------------------|---------------------------------|
E| |---------------------------------|---------------------------------|


11.44
     F#m
e| |-17------14--.-------------------|---------14--.---17--------------|
B| |-----------------14--------------|-14----------------------14--.---|
G|4|-------------------------14--.---|---------------------------------|
D|4|---------------------------------|---------------------------------|
A| |---------------------------------|---------------------------------|
E| |---------------------------------|---------------------------------|

     Fm/5-
e| |-1613--1316--.---1613--1316--.---|-1613--1316--.---1613--1316--.---|
B| |-----13--------------13----------|-----13--------------13----------|
G|4|---------------------------------|---------------------------------|
D|4|---------------------------------|---------------------------------|
A| |---------------------------------|---------------------------------|
E| |---------------------------------|---------------------------------|

     Em
e| |-15------12--.-------------------|---------12--.---15--------------|
B| |-----------------12--------------|-12----------------------12--.---|
G|4|-------------------------12--.---|---------------------------------|
D|4|---------------------------------|---------------------------------|
A| |---------------------------------|---------------------------------|
E| |---------------------------------|---------------------------------|

     B
e| |-1411--1114--.---1411--1114--.---|-1411--1114--.---1411--1114--.---|
B| |-----12--------------12----------|-----12--------------12----------|
G|4|---------------------------------|---------------------------------|
D|4|---------------------------------|---------------------------------|
A| |---------------------------------|---------------------------------|
E| |---------------------------------|---------------------------------|


11.56
     F#m
e| |-1714--1417--.---1714--1417--.---|-1714--1417--.---1714--1417--.---|
B| |-----14--------------14----------|-----14--------------14----------|
G|4|---------------------------------|---------------------------------|
D|4|---------------------------------|---------------------------------|
A| |---------------------------------|---------------------------------|
E| |---------------------------------|---------------------------------|

     Fm/5-
e| |-13------16--.---13--------------|---------------------------------|
B| |-------------------------15--.---|---------12--.---15--------------|
G|4|---------------------------------|-13----------------------13--.---|
D|4|---------------------------------|---------------------------------|
A| |---------------------------------|---------------------------------|
E| |---------------------------------|---------------------------------|

     Em
e| |-1512--1215--.---1512--1215--.---|-1512--1215--.---1512--1215--.---|
B| |-----12--------------12----------|-----12--------------12----------|
G|4|---------------------------------|---------------------------------|
D|4|---------------------------------|---------------------------------|
A| |---------------------------------|---------------------------------|
E| |---------------------------------|---------------------------------|

     B
e| |-11------14--.---11--------------|---------------------------------|
B| |-------------------------12--.---|---------------------------------|
G|4|---------------------------------|-11------~-------~-------~-------|
D|4|---------------------------------|---------------------------------|
A| |---------------------------------|---------------------------------|
E| |---------------------------------|---------------------------------|


12.09 (strange rhythm)
e| |---------------------------------|---------------------------------|
B| |---------------------------------|---------11----------------------|
G|4|-11------------------------------|-13--------------13------11------|
D|4|---------------------------------|---------------------------------|
A| |---------------------------------|---------------------------------|
E| |---------------------------------|---------------------------------|

e| |---------------------------------|---------------------------------|
B| |---------10----------12----------|---------------------------------|
G|4|-11----13------------------------|-13--10------11------------------|
D|4|---------------------------------|---------------------------------|
A| |---------------------------------|---------------------------------|
E| |---------------------------------|---------------------------------|

e| |----------------------------9-10-|-121210109-9---------------------|
B| |-10----9--10--10b12-----1012-----|-------------1212/14-------------|
G|4|--------------------1113---------|---------------------------------|
D|4|---------------------------------|---------------------------------|
A| |---------------------------------|---------------------------------|
E| |---------------------------------|---------------------------------|


12.34 --FLUTEs-- (taken from "Jordrok")
     F#m     D         C#      D         Bm                C#
e| |-5---4-----------|-----------------|-----------------|-----------------|
B| |-------7-5-------|-----6---7-------|---------5---7---|-6---------------|
G|4|-------------7---|-6---------------|-4---6-7---------|-----------------|
D|4|-4---------------|-----------------|-----------------|-----------------|
A| |---------5-------|-4-------5-------|-----------------|-4---------------|
E| |-----------------|-----------------|-7---------------|-----------------|

     F#m     D         C#      D         Bm                C#
e| |-5---4-----------|-----------------|---4-5-----------|-----4-----------|
B| |-------7-5-------|-----6---7-------|-7-----------5---|-6-7-------4-6---|
G|4|-------------7---|-6---------------|---------6-7-----|---------6-------|
D|4|-4---------------|-----------------|-----------------|-----------------|
A| |---------5-------|-4-------5-------|-----------------|-4---------------|
E| |-----------------|-----------------|-7---------------|-----------------|

     F#m
e| |-----------------|
B| |-7---------------|
G|4|-----------------|
D|4|-4---------------|
A| |-----------------|
E| |-----------------|



Buenos Aires. October, 2013.

soldync@yahoo.com.ar

            
            
Suggest correction
Creating personal tab
Creating personal tab
You can edit any tab online and save it as your Personal.

You can edit, replace or remove any tab part or add personal notes – all changes will be seen only by you.

Personal tabs can be accessed anytime from any device, even offline.
Learn more »
Give kudos to tab author, rate the tab!
1 2 3 4 5
comments
print report bad tab
5 comments total. Showing first comments.
+1 reply
offbyone 10 Jan 24, 2014 07:24 AM

Just starting to learn this, would have been near impossible without this tab. Thanks!

0 reply
FinderofNemo 337 May 15, 2014 08:28 PM

good tab, missing a lot of detail but good

0 reply
crimson-dync 4,191 May 15, 2014 09:03 PM

What do you think is missing? If I can correct it, I'll do it.

guest
You may want to rate the tab now too:
select rating
Wanna post a correction for this tab? Suggest correction