Oops, an error
Loading. Please wait.

Лесник tab

version 1
version 1

Whole song

Interactive

738 views 21 this week
1 commentread comment
1 2 3 4 5
x 5
add to favorites
×
Save as Personal and add changes to this tab that will be seen only by you. Learn more ›
×
You can save this tab as Personal to edit and correct it or add notes. All changes will be seen only by you. Learn more »
launch autoscroll
font size
0
reset
how to read this tab
guitar tuner
edit
Autoscroll
slow
fast
+/-
esc
set tempo
stop
Author
  E|-----------------------------------------------------------------|  |
  H|-8-8-6-6-5-5-----8-8-6-6-5-5-------------------------------------|  |
  G|-------------7-7-------------7-7-----4-4-5-5-7-7-----4-4-5-5-7-7-|  |
  D|---------------------------------5-5-------------5-5-------------|  |
  A|-----------------------------------------------------------------|  |
  E|-----------------------------------------------------------------|  |

Вступление:                     2 раза

E---------------------3-1---3-1--33—11—00--------------
H---1-3-5---1-3-5---1------1-------------33----13---13-
G—2-------2--------2------2------------------04---04---
D------------------------------------------------------
A------------------------------------------------------
E------------------------------------------------------



Замученный дорогой, я выбился из сил
E--------------------------------
H-----1------1-----1-1—3-5-3-----
G---2--2-2-2--2---2--------------
D--------------------------------
A--------------------------------
E--------------------------------

И в доме лесника я ночлега попросил
E--------------------------------
H-----1------1-----1-1—3-5-3-----
G---2--2-2-2--2---2--------------
D--------------------------------
A--------------------------------
E--------------------------------

С улыбкой добродушной старик меня пустил
E------------------------------
H-----1------1------1-1—3-5-3--
G---2--2-2-2--2---2------------
D------------------------------
A------------------------------
E------------------------------

И жестом дружелюбным на ужин пригласил
E------------------------------
H-----1------1------1---1------
G---2—-2-2-2--2---2--22--2-----
D------------------------------
A------------------------------
E------------------------------




ПРИПЕВ:

Будь как дома путник, я ни в чем ни откажу , я ни в чем ни откажу ,  я ни в чем ни откажу!
E------------1-3-1-1-1-3-------1-1-1-3--------1-1-1-3-1
H—1-1-1-1-1-1-----------1---1-4-------1----1-4---------
G------------------------------------------------------
D------------------------------------------------------
A------------------------------------------------------
E------------------------------------------------------

Множество историй коль желаешь расскажу, коль желаешь расскажу, коль желаешь расскажу!
E------------1-3-1-1-1-3-------1-1-1-3--------1-1-1-3-1
H—1-1-1-1-1-1-----------1---1-4-------1----1-4---------
G------------------------------------------------------
D------------------------------------------------------
A------------------------------------------------------
E------------------------------------------------------

2-й, и 3-й куплет играется так же.

            
            
Suggest correction
Creating personal tab
Creating personal tab
You can edit any tab online and save it as your Personal.

You can edit, replace or remove any tab part or add personal notes – all changes will be seen only by you.

Personal tabs can be accessed anytime from any device, even offline.
Learn more »
comments
print report bad tab
1 comment total.
0 reply
gleb.kukobnikov 10 Mar 12, 2015 08:22 AM, edited at 12:23 pm

Bilo bi neploho esli bi zapostil Kykly koldyna na electroguitare

guest
You may want to rate the tab now too:
select rating
Wanna post a correction for this tab? Suggest correction