Oops, an error
Loading. Please wait.

Its A Beautiful Day bass

version 2
version 2

Whole song

2,343 views 6 this week
no commentswrite comment
1 2 3 4 5
x 4
add to favorites
×
Save as Personal and add changes to this tab that will be seen only by you. Learn more ›
×
You can save this tab as Personal to edit and correct it or add notes. All changes will be seen only by you. Learn more »
launch autoscroll
font size
0
reset
guitar tuner
edit
Autoscroll
slow
fast
+/-
esc
set tempo
stop
Author
Difficulty
G|-------------------------------------------------------------------------|
D|-------------------------------------------------6-6-6-6-6-6-6-6-6-6-6-6-|
A|-4---4---4---4---4---4-4-4---4-------------------------------------------|
E|---------------------------------4---4---4---4---------------------------|
   1 + 2 + 3 + 4 + 1 + 2 + 3 + 4 + 1 + 2 + 3 + 4 + Tripl Tripl Tripl Tripl

Verse 0:06
G|-----------------------------------------------------------------|
D|-----------------------------------------------------------------|
A|-4---------------------------------------------------------------|
E|---------------------------------------------------------------4-|
   1 + 2 + 3 + 4 + 1 + 2 + 3 + 4 + 1 + 2 + 3 + 4 + 1 + 2 + 3 + 4 +

G|-----------------------------------------------------------------|
D|-----------------------------------------------------------------|
A|-4---------------------------------------------------------------|
E|---------------6-4-------------4-6-------------4-2-------------4-|
   1 + 2 + 3 + 4 + 1 + 2 + 3 + 4 + 1 + 2 + 3 + 4 + 1 + 2 + 3 + 4 +

G|-----------------------------------------------------------------|
D|-----------------------------------------------------------------|
A|-4-----------4-----------6---------------4---1-------------------|
E|-------6-4-------4---4-4-----4---6---------------2-------2---4---|
   1 + 2 + 3 + 4 + 1 + 2 + 3 + 4 + 1 + 2 + 3 + 4 + 1 + 2 + 3 + 4 +

G|-----------------------------------------------------------------|
D|-----------------------------------------------------------------|
A|-4-----------4---------------4-----------------------------------|
E|-------6-4-------4-------4-------6-------6---1---2-------2---4---|
   1 + 2 + 3 + 4 + 1 + 2 + 3 + 4 + 1 + 2 + 3 + 4 + 1 + 2 + 3 + 4 +

Pre Chorus 0:33
G|---------------------------------5-------------------------------|
D|-----------------------------8-----------7-----------------------|
A|-------------------------8-----------------------8---------------|
E|-6---9---\---\---6---8-----------------------------------8-------|
   1 + 2 + 3 + 4 + 1 + 2 + 3 + 4 + 1 + 2 + 3 + 4 + 1 + 2 + 3 + 4 +

G|---------------------------------5-------------------------------|
D|-----------------------------8-----------7-----------------------|
A|-------------------------8-----------------------8---------------|
E|-6---\---\---\---6---8-----------------------------------8---1---|
   1 + 2 + 3 + 4 + 1 + 2 + 3 + 4 + 1 + 2 + 3 + 4 + 1 + 2 + 3 + 4 +

G|-------------------------------------------------------------------------|
D|-------------------------------------------------6-6-6-6-6-6-6-6-6-6-6-6-|
A|-------------------------------------------------------------------------|
E|-2---2---2---2---2---2-2-2-2-6---4---4---4---4---------------------------|
   1 + 2 + 3 + 4 + 1 + 2 + 3 + 4 + 1 + 2 + 3 + 4 + Tripl Tripl Tripl Tripl

Chorus 0:53
G|-----------------------------------------------------------------|
D|-----------------------------------------------------------------|
A|-4---4---4---4-6---------3---6-----------------------------------|
E|-----------------4---6-----------6---6---6---6-6-4---6---4---1---|
   1 + 2 + 3 + 4 + 1 + 2 + 3 + 4 + 1 + 2 + 3 + 4 + 1 + 2 + 3 + 4 +

G|-----------------------------------------------------------------|
D|-------------------------3---4-----------------------3-----------|
A|---------------6-4---6---------4---------------6-4-----4---------|
E|-2---2---2---2-------------------2---2---2---2-----------4-6-4-6-|
   1 + 2 + 3 + 4 + 1 + 2 + 3 + 4 + 1 + 2 + 3 + 4 + 1 + 2 + 3 + 4 +

G|-----------------------------------------------------------------|
D|---------------6-------------------------------------3-----------|
A|-4---4---4---4-----------3---3-4-------------------------6---4---|
E|-----------------4---6-----------6---6---6---6-2-4---------6---4-|
   1 + 2 + 3 + 4 + 1 + 2 + 3 + 4 + 1 + 2 + 3 + 4 + 1 + 2 + 3 + 4 +

G|-----------------------------------------------------------------|
D|---------------------1---3-------------------------------2---3---|
A|---------1---3---4---------4-6-----------------6-4---6---------4-|
E|-2---4---------------------------2---2---2---2-------------------|
   1 + 2 + 3 + 4 + 1 + 2 + 3 + 4 + 1 + 2 + 3 + 4 + 1 + 2 + 3 + 4 +

G|-----------------------------------------------------------------|
D|-4---1-----------------------------------------------------------|
A|---------4---------------0---3-------3---4---6-4-----------------|
E|-------------2---1---3-----------6---------------4---------------|
   1 + 2 + 3 + 4 + 1 + 2 + 3 + 4 + 1 + 2 + 3 + 4 + 1 + 2 + 3 + 4 +

Rest

Verse 1:30
G|-----------------------------------------------------------------|
D|-----------------------------3-----------------------------------|
A|-4---4---4---4-6-------4-6-------------------3-----------1---3---|
E|-----------------4---------------6-------6-------2---4-----------|
   1 + 2 + 3 + 4 + 1 + 2 + 3 + 4 + 1 + 2 + 3 + 4 + 1 + 2 + 3 + 4 +

G|-----------------------------------------------------------------|
D|-------------3---------------------------------------------------|
A|-4-------4-------------------------------------------------------|
E|-----------------4-----2-4---1---6-------6---8---2---2---2---2---|
   1 + 2 + 3 + 4 + 1 + 2 + 3 + 4 + 1 + 2 + 3 + 4 + 1 + 2 + 3 + 4 +

Pre Chorus1:42
G|---------------------------------5-------------------------------|
D|-----------------------------8-----------7-----------------------|
A|-------------------------8-----------------------8-----8---------|
E|-6---\---\---\-4-6-4-8-------------------------8---------8---1---|
   1 + 2 + 3 + 4 + 1 + 2 + 3 + 4 + 1 + 2 + 3 + 4 + 1 + 2 + 3 + 4 +

G|-----------------------------------------------------------------|
D|-----------------------------8---7-------------------------------|
A|-------------------------8---------------8-----8-----------------|
E|-6---\---\---\-4-6-6-8-----------------8---------8-------1---4---|
   1 + 2 + 3 + 4 + 1 + 2 + 3 + 4 + 1 + 2 + 3 + 4 + 1 + 2 + 3 + 4 +

G|-----------------------------------------------------------------|
D|-------------------------------------------------3---1-------3---|
A|---------------------------------------------------------4-------|
E|-2---2---2---2---2---2-1-2-1-2-6-4---4---4---4-------------------|
   1 + 2 + 3 + 4 + 1 + 2 + 3 + 4 + 1 + 2 + 3 + 4 + 1 + 2 + 3 + 4 +

G|-------------------------3-3-6-------------------------------------------|
D|-4---4---4---4---4---6-----------6---6---6---6---6-6-6-6-6-6-6-6-6-6-6---|
A|-----------------------------------------------------------------------4-|
E|-------------------------------------------------------------------------|
   1 + 2 + 3 + 4 + 1 + 2 + 3 + 4 + 1 + 2 + 3 + 4 + Tripl Tripl Tripl Tripl

Chorus 2:10
G|-----------------------------------------------------------------|
D|-----------------------------------------------------------------|
A|-------------------------3---6-------3---4-----------------------|
E|---------------4---4-6-----------6-----------6---4---6---4-2-1---|
   1 + 2 + 3 + 4 + 1 + 2 + 3 + 4 + 1 + 2 + 3 + 4 + 1 + 2 + 3 + 4 +

G|-----------------------------------------------------------------|
D|-------------------------3---------------------------3-----------|
A|---------------6-4---6-------4-------------------4-----4---------|
E|-2---2---2---2-----------------1-2---4---6---4-----------4-6-4-6-|
   1 + 2 + 3 + 4 + 1 + 2 + 3 + 4 + 1 + 2 + 3 + 4 + 1 + 2 + 3 + 4 +

G|-----------------------------------------------------------------|
D|-------------3---------------------------------------3-----------|
A|-4-------------4---------3-3-4-------3---4---6-----------6-------|
E|-----6---4-------4---6-----------6---------------4-----------6---|
   1 + 2 + 3 + 4 + 1 + 2 + 3 + 4 + 1 + 2 + 3 + 4 + 1 + 2 + 3 + 4 +

G|-----------------------------------------------------------------|
D|----------------------------------------------------h8---6-------|
A|-----------------4-----------4-------------------4-4---------8---|
E|-2---2---2---2-------6---4-----4-2---2---2---2-------------------|
   1 + 2 + 3 + 4 + 1 + 2 + 3 + 4 + 1 + 2 + 3 + 4 + 1 + 2 + 3 + 4 +

G|-----------------------------------------------------------------|
D|-4---1---------------------------------------1-------------------|
A|---------4---------------0---3---1---3---4-----------1---3---4---|
E|-------------2---1---3---------------------------4---------------|
   1 + 2 + 3 + 4 + 1 + 2 + 3 + 4 + 1 + 2 + 3 + 4 + 1 + 2 + 3 + 4 +

2:43
G|-----------------------------------------------------------------|
D|-4-------------------------------4-------------------------------|
A|-----------------4-------------------------------4---------------|
E|-----------------------------------------------------------------|
   1 + 2 + 3 + 4 + 1 + 2 + 3 + 4 + 1 + 2 + 3 + 4 + 1 + 2 + 3 + 4 +

G|-----------------------------------------------------------------|
D|-4---4---4---4---7---7---7---7---8---8---8---8---6---------------|
A|-----------------------------------------------------------------|
E|-----------------------------------------------------------------|
   1 + 2 + 3 + 4 + 1 + 2 + 3 + 4 + 1 + 2 + 3 + 4 + 1 + 2 + 3 + 4 +

Outro 2:56
G|-----------------------------------------------------------------|
D|-----------------------------------------------------------------|
A|-4-------------------------------1-----------------------1---3---|
E|---------------6-4---------2-4-2---------------4-2-2-4-----------|
   1 + 2 + 3 + 4 + 1 + 2 + 3 + 4 + 1 + 2 + 3 + 4 + 1 + 2 + 3 + 4 +

G|-----------------------------------------------------------------|
D|-------------------------------------------------4---3-----------|
A|-4-------------6-------------------------------4---------6-------|
E|-----------------4-------------4-6---------------------------4---|
   1 + 2 + 3 + 4 + 1 + 2 + 3 + 4 + 1 + 2 + 3 + 4 + 1 + 2 + 3 + 4 +

G|-----------------------------------------------------------------|
D|-----------------------------------------------------------------|
A|-4---------------------------------------------------------------|
E|-----------------------------------------------------------------|
   1 + 2 + 3 + 4 + 1 + 2 + 3 + 4 + 1 + 2 + 3 + 4 + 1 + 2 + 3 + 4 +
Tabbed by Dave Vucko

            
            
Suggest correction
Creating personal tab
Creating personal tab
You can edit any tab online and save it as your Personal.

You can edit, replace or remove any tab part or add personal notes – all changes will be seen only by you.

Personal tabs can be accessed anytime from any device, even offline.
Learn more »
comments
print report bad tab
guest
You may want to rate the tab now too:
select rating
Wanna post a correction for this tab? Suggest correction