Oops, an error
Loading. Please wait.

Veteran Of The Psychic Wars solo tab

version 1
version 1

Solo

Whole song

Interactive

1,057 views 6 this week
no commentswrite comment
1 2 3 4 5
2 more votes to show rating
add to favorites
×
Save as Personal and add changes to this tab that will be seen only by you. Learn more ›
×
You can save this tab as Personal to edit and correct it or add notes. All changes will be seen only by you. Learn more »
launch autoscroll
font size
0
reset
how to read this tab
guitar tuner
edit
Autoscroll
slow
fast
+/-
esc
set tempo
stop
Author
Difficulty
-----------------------------------------------------------------------------
              Blue Oyster Cult - Veteran of the Psychic Wars Live
-----------------------------------------------------------------------------

Tabbed by: Blooker

Key:
************************************
| /   slide up
| \   slide down
| h   hammer-on
| p   pull-off
| ~   vibrato
| +   harmonic
| x   Mute note
| b   Bend
| pb  Pre-bend
| br  Bend release
| pbr Pre-bend release
| brb Bend release bend
************************************

This is the live solo from the awesome album Extraterrestrial Live.


2:38...
e|-----------------------------------8b-8-6h8------------13pbr--13-13-13/15-|
B|--------------------------------------------8-----------------------------|
G|-7-5br\3----------2br-----------------------------------------------------|
D|----------------------3/5-------------------------------------------------|
A|--------------------------------------------------------------------------|
E|--------------------------------------------------------------------------|

e|----17br---17--15---------------------------------------------------------|
B|-15----------------15-----------------------------------------------------|
G|-----------------------15--12---------------------------------------------|
D|-------------------------------12-----------------------------------------|
A|-----------------------------------13-------------(echo)------------------|
E|--------------------------------------------------------------------------|

e|--------------------------------------------------------------------------|
B|-11-8--------------------------------------------8------------------------|
G|------10-7---------------------0--------------7b---10-7-------------------|
D|-----------10-8-----10----------------------------------10~---------------|
A|----------------10-8--10-10-10--------------------------------------------|
E|--------------------------------------------------------------------------|

e|--------8b-8b-8b-8b-8b-rp6------------------------------------------------|
B|---8~----------------------8----------------------------------------------|
G|--x-----------------------------------------------------------------------|
D|-x------------------------------------------------------------------------|
A|--------------------------------------------------------------------------|
E|--------------------------------------------------------------------------|


3:23...
e|--------------------------------------------------------------------------|
B|--------------------------------------------------------------------------|
G|--------------------------------------------------------------------------|
D|-------5~--------------5~--------------5~-----------------5~--------------|
A|--------------------------------------------------------------------------|
E|-3-------------3---------------3----------------3-------------------------|

e|--------------------------------------------------------------------------|
B|--------------------------------------------------------------------------|
G|--------------------------------------------------------------------------|
D|-------5~--------------5~--------------5~-----------------5~\-------------|
A|--------------------------------------------------------------------------|
E|-3-------------3---------------3----------------3-------------------------|

e|--------------------------------------------------------------------------|
B|-------8~-----------8~------------8~-------------8~-------------------8~--|
G|--------------------------------------------------------------------------|
D|--x-x-------s5------------s5-------------s5----------------s5-------------|
A|--------------------------------------------------------------------------|
E|--------------------------------------------------------------------------|

e|------------------------------------15-------------------15\--------------|
B|-----------8~-------------------------------------------------------------|
G|------------------------s12--------------------s12------------------------|
D|---s5---------------------------------------------------------------------|
A|--------------------------------------------------------------------------|
E|--------------------------------------------------------------------------|

Very fast picking
e|--------------------------------------------------------------------------|
B|--------------------------------------------------------------------------|
G|-12121414141414141414141414141414141414141414141414h1515151515151515151515|
D|--------------------------------------------------------------------------|
A|--------------------------------------------------------------------------|
E|--------------------------------------------------------------------------|

Continue..
e|--------------------------------------------------------------------------|
B|--------------------------------------------------------------------------|
G|1515151515151515151515-h1717171717171717171717171717171717-\12121212121212|
D|--------------------------------------------------------------------------|
A|--------------------------------------------------------------------------|
E|--------------------------------------------------------------------------|

e|--------------------------------------------------------------------------|
B|--------------------------------------------------------------------------|
G|121212121212121212h141412h1414141414141414141414141414-7777777777777777777|
D|--------------------------------------------------------------------------|
A|--------------------------------------------------------------------------|
E|--------------------------------------------------------------------------|

e|--------------------------------------------------------------------------|
B|--------------------------------------------------------------------------|
G|77777777777/1414\1010101010101010101010101010101010-1717171717171717171717|
D|--------------------------------------------------------------------------|
A|--------------------------------------------------------------------------|
E|--------------------------------------------------------------------------|

e|--------------------------------------------------------------------------|
B|--------------------------------------------------------------------------|
G|1717171717-14141414141414141414-171714h15151515151515h17171717151414141414|
D|--------------------------------------------------------------------------|
A|--------------------------------------------------------------------------|
E|--------------------------------------------------------------------------|

e|--------------------------------------------------------------------------|
B|--------------------------------------------------------------------------|
G|1414h151515151515h17171717151414141414141414151515151515151515151515151515|
D|--------------------------------------------------------------------------|
A|--------------------------------------------------------------------------|
E|--------------------------------------------------------------------------|

e|--------------------------------------------------------------------------|
B|--------------------------------------------------------------------------|
G|1515151515151515151515151515151515151515----------------------------------|
D|--------------------------------------------------------------------------|
A|--------------------------------------------------------------------------|
E|--------------------------------------------------------------------------|

4:18...
e|-18p15---15---------------------------------------------------------------|
B|-------18--18p15-17-15-17--/15--------------------------------------------|
G|------------------------------15-17-17-17-17--------10-10-12~\------------|
D|-----------------------------------------------------------------3---5~---|
A|--------------------------------------------------------------------------|
E|--------------------------------------------------------------------------|

e|--------------------------5-5---------------------------------------------|
B|------------------------8-----6-6-s8-6-----------------6-8---6-8-6--------|
G|----------------------7----------------7-5b---5-----5b-----7-------7\-----|
D|-5-7brp5---5----5-7-8-----------------------8---5-8-----------------------|
A|---------8----8-----------------------------------------------------------|
E|--------------------------------------------------------------------------|

e|--8b---8-6-9p8p6-5-6-5-8p6p5-6p5-5----------------------------------------|
B|--------------------------------8-6h8p6-----------------------------------|
G|---------------------------------------7-7p5-5b---5brb--------------------|
D|--------------------------------------------8-----------------------------|
A|--------------------------------------------------------------------------|
E|--------------------------------------------------------------------------|

e|--------------------------------------------------------------------------|
B|---------------------------------------------666\------------666\---------|
G|---5----------------------3-3-3333-s555-s777-555\--333-55-77-555\---------|
D|-8---7brp5---7---5-------3-3-33333-s555-s777-------333-55-77--------------|
A|-----------8---8----------------------------------------------------------|
E|--------------------------------------------------------------------------|

e|--------------------10101010-1010/------x----15-15~~~--15\--------15-13br~|
B|-------------666-8--8888888------/---------------------------15b----------|
G|-333-555-777-555-7--7777777------/----------------------------------------|
D|-333-555-777--------------------------------------------------------------|
A|--------------------------------------------------------------------------|
E|--------------------------------------------------------------------------|

4:45...
e|--------------------------------------------------------------------------|
B|-15brp13-15--13b-13b-13b-13brs(10)----------------------------------------|
G|-----------------------------------12h15p12----12-------------------------|
D|--------------------------------------------15----15p12-------------------|
A|--------------------------------------------------------15p13h15----------|
E|--------------------------------------------------------------------------|

e|----------------13b-13b-13b~------17-18-17h18p17p15-18b~------------------|
B|------------------------------15------------------------------------------|
G|--------15-15~------------------------------------------------------------|
D|-10s15--------------------------------------------------------------------|
A|--------------------------------------------------------------------------|
E|--------------------------------------------------------------------------|

e|-17brp15----15-15---------------------------------------------------------|
B|---------18-------18pbr---------------------------------------------------|
G|------------------------15-17-17b-17-15-17-15-17b~--17-15-17--------------|
D|-------------------------------------------------------------17-----------|
A|--------------------------------------------------------------------------|
E|--------------------------------------------------------------------------|

e|-----------------------------1313151515-----15-18p15--15-18p15------------|
B|-----------------1515----15151313151515---15--------15--------------------|
G|-15--151515171717151517171515--------15-----------------------------------|
D|---15--1515171717----1717-------------------------------------------------|
A|--------------------------------------------------------------------------|
E|--------------------------------------------------------------------------|

e|-18p15--15-18p15--15-17p15--15-17p15--15-17p15--15-17p15-17~--------------|
B|------15--------15--------15--------15--------15--------------------------|
G|--------------------------------------------------------------------------|
D|--------------------------------------------------------------------------|
A|--------------------------------------------------------------------------|
E|--------------------------------------------------------------------------|

5:03...
e|-\13-13-13b-13b-13b-13br\-------------------------------------------------|
B|-----------------------------6h8p6p5h6-5h6-6-6----------------------------|
G|-----------------------------------------------3--------------------------|
D|--------------------------------------------------------------------------|
A|--------------------------------------------------------------------------|
E|--------------------------------------------------------------------------|

e|--------------------------------------------------------------------------|
B|--------------------------------------------------------------------------|
G|-3p0-3p0-3p0-5p0-3p0-5p0-7p0-5p0-3p0-5p0-7p0-5p0-3p0-5p0-7p0-5p0----------|
D|--------------------------------------------------------------------------|
A|--------------------------------------------------------------------------|
E|--------------------------------------------------------------------------|

e|--------------------------------------------------------------------------|
B|--------------------------------------------------------------------------|
G|-3p0-5p0-7p0-5p0-3p0-5p0-7p0-5p0-3p0-5p0-7p0-5p0-3p0-5p0-7p0-5p0----------|
D|--------------------------------------------------------------------------|
A|--------------------------------------------------------------------------|
E|--------------------------------------------------------------------------|

e|--------------------------------------------------------------------------|
B|--------------------------------------------------------------------------|
G|-/1212121212\----------/191917151517171717-19191917151517171717-----------|
D|-/1212121212\----------/191917151517171717-19191917151517171717-----------|
A|--------------------------------------------------------------------------|
E|--------------------------------------------------------------------------|

e|--------------------------------------------------------------------------|
B|--------------------------------------------------------------------------|
G|-19191917151517171717----14h15-12-14-14h15p14p12-14p12---12---------------|
D|-19191917151517171717----------------------------------15---15p12---12----|
A|------------------------------------------------------------------15------|
E|--------------------------------------------------------------------------|

e|-------------------------------------------------1515151818181818181818---|
B|--------------------------------------------1717-1515151515151515151515---|
G|-------------------------------------17-15--1717--------------------------|
D|-------------------------------------17-15--1717--------------------------|
A|----13-15-13-----------13h15/17-15-17-------------------------------------|
E|-15----------15--13-15----------------------------------------------------|

5:23...
e|-17171818181817171717---18p15-18p15-18p15--15-18p15---15-18p15---18p15----|
B|-15151515151515151515--------------------18--------18---------18------18--|
G|--------------------------------------------------------------------------|
D|--------------------------------------------------------------------------|
A|--------------------------------------------------------------------------|
E|--------------------------------------------------------------------------|

e|-15-18p15----15-18p15---15-18p15----15-18p15----15-18p15----15-18p15------|
B|----------18---------18----------18----------15----------15----------15---|
G|--------------------------------------------------------------------------|
D|--------------------------------------------------------------------------|
A|--------------------------------------------------------------------------|
E|--------------------------------------------------------------------------|


e|-15-18p15----17p15----17p15----17p15----17-17b~------------15-17b~--------|
B|----------15-------15-------15-------15-----------------15----------------|
G|--------------------------------------------------------------------------|
D|--------------------------------------------------------------------------|
A|--------------------------------------------------------------------------|
E|--------------------------------------------------------------------------|

e|-18b~----17h18-17p15----15---------------------------15-18p15----15-------|
B|---------------------18----18brbr18-15\-----------/15---------18----18\15-|
G|--------------------------------------------------------------------------|
D|--------------------------------------------------------------------------|
A|--------------------------------------------------------------------------|
E|--------------------------------------------------------------------------|

e|--------------------------------------------------------------------------|
B|-x-13b-13-----------------------------------------------------------------|
G|-x-15b----15-17-171717-151515\-------/------------------------------------|
D|-------------17-171717-151515\-------/------------------------------------|
A|--------------------------------------------------------------------------|
E|--------------------------------------------------------------------------|

5:38...
e|--------------------------------------------------------------------------|
B|--------------------------------------------------------------------------|
G|-121212/141414/151515\14141414\121212\111111/121212/1414141414------------|
D|--------------------------------------------------------------------------|
A|--------------------------------------------------------------------------|
E|--------------------------------------------------------------------------|

e|--------------------------------------------------------------------------|
B|--------------------------------------------------------------------------|
G|-151515\141414\121212/141414/151515\141414\121212/141414/151515/1717171717|
D|--------------------------------------------------------------------------|
A|--------------------------------------------------------------------------|
E|--------------------------------------------------------------------------|

e|--------------------------------------------------------------------------|
B|--------------------------------------------------------151515\1616/15----|
G|-151515\141414/151515\141414\121212\111111/121212-------------------------|
D|--------------------------------------------------------------------------|
A|--------------------------------------------------------------------------|
E|--------------------------------------------------------------------------|

e|--------------------------------------------------------------------------|
B|--------------------------------------------------------------------------|
G|-1212/14141414141414\12----7777777/1010101010/1414141414/1515151515\------|
D|--------------------------------------------------------------------------|
A|--------------------------------------------------------------------------|
E|--------------------------------------------------------------------------|

5:51...
e|----------------------------------15--------------------------------------|
B|-------------------------------/15--18p15-15-18p15-15-18p15-15-18p15-15---|
G|-11111111/1212121212\-----------------------------------------------------|
D|--------------------------------------------------------------------------|
A|--------------------------------------------------------------------------|
E|--------------------------------------------------------------------------|

e|----------------------------------------------18p15--15-18p15--15---------|
B|-18p15-15-18p15-15-18p15-15-18p15-15-18p15-15------15--------15-----------|
G|--------------------------------------------------------------------------|
D|--------------------------------------------------------------------------|
A|--------------------------------------------------------------------------|
E|--------------------------------------------------------------------------|

e|-18p15--15-18p15--15-17p15--17p15--17p15--15--15--------------------------|
B|------15--------15--------15-----15-----15------18-15-18-15-15-18-15-15-18|
G|--------------------------------------------------------------------------|
D|--------------------------------------------------------------------------|
A|--------------------------------------------------------------------------|
E|--------------------------------------------------------------------------|

e|---------------------------------------------1515-1515-1515-1515-1515-----|
B|-18-18p15-18p15-18p15------------------------1515-1515-1515-1515-15151515-|
G|----------------------17b-17b-17~---18p17p15-1515------18b-17b-18b-171717-|
D|------------------------------------------15-15---------------------------|
A|--------------------------------------------------------------------------|
E|--------------------------------------------------------------------------|

6:02...
e|--------------------------------------------------------------------------|
B|151515-181818\------------------------------------------------------------|
G|181818-171717\----------9/1212121212121212121212121212-141414141414141414-|
D|--------------------------------------------------------------------------|
A|--------------------------------------------------------------------------|
E|--------------------------------------------------------------------------|

e|-------------------------------------------------15-----------------------|
B|---------------------------------------------------15---------------------|
G|1414141414141414-151515151515151515151515-\-----------12------------------|
D|---------------------------------------------------------12-\-5-----------|
A|--------------------------------------------------------------------------|
E|--------------------------------------------------------------------------|

6:14...
e|--------------------------------------------------------------------------|
B|--------------------------------------------------------------------------|
G|-5b~----------------5pbr-3-5-3---5-5\3~---h3-h3-h3-h3~--------------------|
D|-------------------------------5------------------------------------------|
A|--------------------------------------------------------------------------|
E|--------------------------------------------------------------------------|

Cheers!

            
            
Suggest correction
Creating personal tab
Creating personal tab
You can edit any tab online and save it as your Personal.

You can edit, replace or remove any tab part or add personal notes – all changes will be seen only by you.

Personal tabs can be accessed anytime from any device, even offline.
Learn more »
Give kudos to tab author, rate the tab!
1 2 3 4 5
comments
print report bad tab
guest
You may want to rate the tab now too:
select rating
Wanna post a correction for this tab? Suggest correction