Oops, an error
Loading. Please wait.

Uimane Ja Väsinud Tab

593 views 1 this week
no commentswrite comment
1 2 3 4 5
please rate
add to favorites
launch autoscroll
font size
0
reset
how to read this tab
guitar tuner
Autoscroll
slow
fast
+/-
esc
set tempo
stop
Help us to improve Ultimate-Guitar.com Take our survey!
×
Contributor
Difficulty
novice
-------------------------------------------------------------------------------
 Vennaskond - Uimane ja väsinud
-------------------------------------------------------------------------------

Tuning: regular

Intro, verse and chorus:
     E  E  E  E  E  E  E  E     E  E  E  Q    E  E  E   
E||--------------------------|-------------------------|
B||--------------------------|-------------------------|
G||--4--4--4--4--------------|--7--7--7----------------|
D||--4--4--4--4--5--5--5--5--|--7--7--7--7----7--7--7--|
A||--2--2--2--2--5--5--5--5--|--5--5--5--7----7--7--7--|
E||--------------3--3--3--3--|-----------5----5--5--5--|


                             ^    ^    ^    ^                                
  E  E  E  E  E  E  E  E     Q    Q    Q    Q       E  E  E  E  E  E  E  E   
--------------------------|----------------------|--------------------------|
--------------------------|----------------------|--------------------------|
--4--4--4--4--------------|--7----7----7----7----|--4--4--4--4--------------|
--4--4--4--4--5--5--5--5--|--7----7----7----7----|--4--4--4--4--5--5--5--5--|
--2--2--2--2--5--5--5--5--|--5----5----5----5----|--2--2--2--2--5--5--5--5--|
--------------3--3--3--3--|----------------------|--------------3--3--3--3--|


  E  E  E  Q    E  E  E     E  E  E  E  E  E  E  E   
-------------------------|--------------------------|
-------------------------|--------------------------|
--7--7--7----------------|--4--4--4--4--------------|
--7--7--7--7----7--7--7--|--4--4--4--4--5--5--5--7--|
--5--5--5--7----7--7--7--|--2--2--2--2--5--5--5--7--|
-----------5----5--5--5--|--------------3--3--3--5--|


  E  E  E  E  E  E  E  E    
--------------------------||
--------------------------||
--------------------------||
--L-----------------------||
--L--7--7--7--7--7--7--7--||
--L--5--5--5--5--5--5--5--||


Duration Legend
---------------
Q - quarter
E - 8th

Tablature Legend
----------------
L - tied note


That's actually it, dont stop playing until the singer stops singing.
comments
We did not receive enough feedback on this tab! Please rate:
print report bad tab
1 2 3 4 5
I want to post or [tab]
guest
You may want to rate the tab now too:
select rating
Please do not post tabs as comments. Select "correction" instead!