Oops, an error
Loading. Please wait.

Smashed Birds tab

by Sóley
3,181 views 12 this week
no commentswrite comment
1 2 3 4 5
1 last vote to show rating
add to favorites
×
Save as Personal and add changes to this tab that will be seen only by you. Learn more ›
×
You can save this tab as Personal to edit and correct it or add notes. All changes will be seen only by you. Learn more »
launch autoscroll
font size
0
reset
how to read this tab
guitar tuner
edit
Autoscroll
slow
fast
+/-
esc
set tempo
stop
Author
Difficulty
I cut out a few details. But thats how you can play it without a capo!
 

(I walk the road when I realize...)
E----------------------------------|
B----------------------------------|
G--1-2-2-2-1-1-1-1-----------------|
D-2-2-2-2-1-1-1-1--6-6-6-6-4-4-4-4-|
A-----------------4-6-4-4-2-2-2-2--|
E----------------------------------|

 (I grap one note and put it in my pocket)
E----------------------------------|
B----------------------------------|
G--1-1-1-1-1-1-1-1-3-3-3-3-3-3-3-3-|
D-2-2-2-2-1-1-1-1-4-4-4-4-4-4-4-4--|
A----------------------------------|
E----------------------------------|

 (With your birds)
E----------------------------|
B----------------------------|
G----------------------------|
D--6-6-6-6-4-4-4-4-4-4-4-4---|
A-4-4-4-4-2-2-2-2-2-2-2-2----|
E----------------------------|

REF:

 (And there I took all of your birds ... and then I got the fea-)
E----------------------------------|
B----------------------------------|
G--1-1-1-1-3-3-3-3-4-4-4-4-4-4-4-4-|
D-2-2-2-2-4-4-4-4-2-2-2-2-2-2-2-2--|
A----------------------------------|
E----------------------------------|

 (-thers left and I made myself...)
E------------------|
B------------------|
G------------------|
D--4-4-4-4-6-6-6-6-|
A-0-0-0-0-4-4-4-4--|
E------------------|


At DRESS you switch to the beginning again! 

            
            
Suggest correction
Creating personal tab
Creating personal tab
You can edit any tab online and save it as your Personal.

You can edit, replace or remove any tab part or add personal notes – all changes will be seen only by you.

Personal tabs can be accessed anytime from any device, even offline.
Learn more »
Give kudos to tab author, rate the tab!
1 2 3 4 5
comments
print report bad tab
guest
You may want to rate the tab now too:
select rating
Wanna post a correction for this tab? Suggest correction