Oops, an error
Loading. Please wait.

Letting Go Tab

1,192 views 1 this week
no commentswrite comment
1 2 3 4 5
2 more votes to show rating
add to favorites
launch autoscroll
font size
0
reset
how to read this tab
guitar tuner
Autoscroll
slow
fast
+/-
esc
set tempo
stop
Ill Niño - Letting Go
Source: www.illninoworld.com
Tabbed by: Yoni Drijfhout
Questions/corrections: webmaster@illninoworld.com

TUNED: drop C   (C,G,C,F,A,D)


----------------------------
INTRO
guitar1
|-----------------|-----------------|
|-----------------|-----------------|
|111111---7-7777--|-7-7-7---7-7777--|
|-9-9-9---7-7777--|-5-5-5---7-7777--|
|-9-9-9---5-5555--|-5-5-5---5-5555--|
|-----------------|-----------------|  3x

|-----------------|-----------------|
|-----------------|-----------------|
|111111---7-7777--|-7---------------|
|-9-9-9---7-7777--|-5---------------|
|-9-9-9---5-5555--|-5---------------|
|-----------------|-----------------|

after a while:
guitar2
|-10--9-----------|-9---7-----------|-10--9-----------|-7---------------|
|-----------------|-----------------|-----------------|-----------------|
|-----------------|-----------------|-----------------|-----------------|
|-----------------|-----------------|-----------------|-----------------|
|-----------------|-----------------|-----------------|-----------------|
|-----------------|-----------------|-----------------|-----------------|


CHORUS
guitar1
|-----------------|-----------------|
|-----------------|-----------------|
|-----------------|-----------------|
|-9-9-9---00--0-0-|-5-5-5---00--0-0-|
|-9-9-9---00--0-0-|-5-5-5---00--0-0-|
|-9-9-9---00--0-0-|-5-5-5---00--0-0-| 2x

guitar2
|-----------------|
|---7------10---7-|
|-----9-----------|
|---------9-------|
|-----------------|
|-----------------|  4x


VERSE
|-----------------|-----------------|-----------------|-----------------|
|-----------------|-----------------|----131313-------|--1111--11-------|
|---7-9-----------|---7-910h9---2---|-----X-X-X--10---|---X-X---X---7---|
|---X-X-----------|---X-X-X-X---X---|----101010---X---|---8-8---8---X---|
|---5-7-----------|---5-7h8h7---0---|-------------8---|-------------5---|
|-----------------|-----------------|-----------------|-----------------|  2x


PRE-CHORUS
|----------------------------------------|
|----------------------------------------|
|----------------------------------------|
|-0-0--0--0-0-0--0--0-0-0--0--0-0-0--0-0-|
|-0-0--0--0-0-0--0--0-0-0--0--0-0-0--0-0-|
|-0-0--0--0-0-0--0--0-0-0--0--0-0-0--0-0-|

|----------------------------------------|
|----------------------------------------|
|----------------------------------------|
|-3-3--3--3-3-3--3--3-3-3--3--3-3---3----|
|-3-3--3--3-3-3--3--3-3-3--3--3-3---3----|
|-3-3--3--3-3-3--3--3-3-3--3--3-3---3----|


REPEAT CHORUS 2x
REPEAT VERSE
REPEAT PRE-CHORUS
REPEAT CHORUS 2x


BRIDGE
both guitars
|-----------------|-----------------|
|-----------------|-----------------|
|-----------------|-----------8-8-8-|
|-0--0--0-0-0---1-|-0--0--0-0-X-X-X-|
|-0--0--0-0-0---1-|-0--0--0-0-6-6-6-|
|-----------------|-----------------| 4x

guitar1
|-----------------|-----------------|-----------------|-----------------|
|-----------------|-----------------|-----------------|-----------------|
|111111---7-7777--|-7-7-7---7-7777--|111111---7-7777--|-7---------------|
|-9-9-9---7-7777--|-5-5-5---7-7777--|-9-9-9---7-7777--|-5---------------|
|-9-9-9---5-5555--|-5-5-5---5-5555--|-9-9-9---5-5555--|-5---------------|
|-----------------|-----------------|-----------------|-----------------|

guitar2
|-10--9-----------|-9---7-----------|-10--9-----------|-7---------------|
|-----------------|-----------------|-----------------|-----------------|
|-----------------|-----------------|-----------------|-----------------|
|-----------------|-----------------|-----------------|-----------------|
|-----------------|-----------------|-----------------|-----------------|
|-----------------|-----------------|-----------------|-----------------|


REPEAT CHORUS 3x


OUTRO
guitar1
|-----------------|-----------------|
|-----------------|-----------------|
|-----------------|-----------------|
|-9-9-9---00--0-0-|-5-5-5---00--0-0-|
|-9-9-9---00--0-0-|-5-5-5---00--0-0-|
|-9-9-9---00--0-0-|-5-5-5---00--0-0-|

|-----------------|-----------------|
|-----------------|-----------------|
|-----------------|-----------------|
|-9-9-9---00--0-0-|-5-5-5-----------|
|-9-9-9---00--0-0-|-5-5-5-----------|
|-9-9-9---00--0-0-|-5-5-5-----------|

guitar2
|-----------------|
|---7------10---7-|
|-----9-----------|
|---------9-------|
|-----------------|
|-----------------|  3x
Suggest correction
Give kudos to tab author, rate the tab!
1 2 3 4 5
comments
print report bad tab
guest
You may want to rate the tab now too:
select rating
Wanna post a correction for this tab? Suggest correction