Oops, an error
Loading. Please wait.

Besaré Tu Piel Bass Tab

17 views 1 this week
no commentswrite comment
1 2 3 4 5
3 more votes to show rating
add to favorites
launch autoscroll
font size
0
reset
guitar tuner
Autoscroll
slow
fast
+/-
esc
set tempo
stop
Help us to improve Ultimate-Guitar.com Take our survey!
×
El bajo entra en el verso junto con la voz

VERSO
G|--------------------------------------------------------------------------|
D|--------------------------------------------------------------------------|
A|-777777h5h77777777h5h7777777h5h7777777/9999999-8888888-77-555h7777-5555---|
E|--------------------------------------------------------------------------|
  Vas acercandote...          ...frente al espejo....

VERSO
G|--------------------------------------------------------------------------|
D|--------------------------------------------------------------------------|
A|-777777h5h77777777h5h7777777h5h7777777/9999999-8888888-77-555h7777-55-----|
E|----------------------------------------------------------------------77--|
  Estas desvistiendote...          ...mientras caemos....

CORO
G|-------------------------------------------------------|
D|-------------------------------------------------------|
A|-------------------------------------------------------|x2
E|-555555553h5555555553h555555553h555555553h55555555-----|
   Yo besare tu piel....

VERSO
G|--------------------------------------------------------------------------|
D|--------------------------------------------------------------------------|
A|-777777h5h7777777h5h77777777h5h7777777/9999999-8888888-77-555h7777-55-----|
E|----------------------------------------------------------------------77--|
  Tus secretos...          ...se que estan ardiendo....


PUENTE
G|----------------------------------5------|
D|-----------------------------------------|
A|-77-7777777-55-555555-44-444444-33-333---|
E|-----------------------------------------|

G|----------------------------------5------|
D|-----------------------------------------|
A|-77-7777777-55-555555-44-444444-33-333---|x2
E|-----------------------------------------|
  Cubreme de ti...

G|----------------------------------|
D|----------------------------------|
A|-7777777/101010-7777777/1010------|
E|------------------------------0---|

Luego sigue el verso con la pura voz y batería y el bajo entra con las guitarras aqui:

G|-------------------------------------|
D|-------------------------------------|
A|-9999999-8888888-77-555h7777-55------|
E|--------------------------------77---|
  Con tus sentidos...

CORO
G|-------------------------------------------------------------------------|
D|---------------------------19-17-----------------------------19-191719---|
A|--------------------------------1917-------------------------------------|x2
E|-/171717171717171717171717----------17171717171717171717171717-----------|
  Yo besare tu piel....

VERSO
G|--------------------------------------------------------------------------|
D|--------------------------------------------------------------------------|
A|-777777h5h777777h5h77777777h5h77777777/9999999-8888888-77-555h7777-5555---|
E|--------------------------------------------------------------------------|
  Tus secretos...          ...se que estan ardiendo....

PUENTE
G|----------------------------------5------|
D|-----------------------------------------|
A|-77-7777777-55-555555-44-444444-33-333---|
E|-----------------------------------------|

G|----------------------------------5------|
D|-----------------------------------------|
A|-77-7777777-55-555555-44-444444-33-333---|x2
E|-----------------------------------------|
  Tu universo....

G|--------------------------------------------------|
D|--------------------------------------------------|
A|-77-7777777-55-555555-44-444444/15151515151515----|
E|--------------------------------------------------|
  Cubrire...

G|-------------9----|
D|------------------|
A|-77775h777777-77--|
E|------------------|

G|------------------------|
D|------------------------|
A|-7777555h7777/10101010--|
E|------------------------|

G|----------------------|
D|----------------------|
A|-7777555h7777/101099--|
E|----------------------|

G|-----------------|
D|-----------------|
A|-77775h77775-----|
E|------------75---|

En esta ultima parte se pueden hacer muchos arreglos, ahi les di algunos que hace Eduardo cuando
la toca en vivo, pero la base es en Mi, de ahi todo depende de ustedes que arreglos quieran hacerle.
Esta canción esta bastante bien y es muy entretenida de tocar, la adapte a las diferentes versiones
en vivo como siemrpe jejeje, bueno esta es otra excelente cancion que intepreta Francisco, espero
que les guste, cualquier duda a mi mail, un saludo a los fanaticos de este gran grupo chileno, chaus!
---EdgE---
Suggest correction
Give kudos to tab author, rate the tab!
1 2 3 4 5
comments
print report bad tab
guest
You may want to rate the tab now too:
select rating
Wanna post a correction for this tab? Suggest correction