Oops, an error
Loading. Please wait.

Juego De Seducción Tab

29 views 1 this week
no commentswrite comment
1 2 3 4 5
3 more votes to show rating
add to favorites
launch autoscroll
font size
0
reset
how to read this tab
guitar tuner
Autoscroll
slow
fast
+/-
esc
set tempo
stop
Help us to improve Ultimate-Guitar.com Take our survey!
×
juegos de seduccion
Lucybell
bateria de fondo
guitarra sin distorción

intro
(con un poco de reverb)
e ---------------------
b ---2---2---2-----5---
g --4---3---4---3------
d -5---4---5---4-------
a ---------------------
e ---------------------

guitarra con distorción
(suena mejor si solo dan rasgueos hacia abajo)

e --------------------
b --------------------
g -7------5-----7-----
d -7-x16--5-x8--7-x8--
a -5------3-----5-----
e --------------------
voi a ser tu mayordomo
tu haras el rol de señora bien

e ---------------
b ---------------
g -7-----5-------
d -7-x8--5-x24---
a -5-----3-------
e ---------------

o puedo ser tu violador
la imaginacion esta noche todo lo puede


e ----------------------------
b ----------------------------
g -5-----7-----6-----5--------
d -5-x8--7-x8--6-x8--5-x8-----
a -3-----5-----4-----3--------
e ----------------------------

te llevaré ....

e ----------------------------
b ----------------------------
g -7-----6-----5-----4--------
d -7-x8--6-x8--5-x8--4-x8-----
a -5-----4-----3-----2--------
e ----------------------------

abrazamé ....
este es el juego de seducción

(a partir de aqui no importa como sea el rasguido)
e -----------------------------
b -----------------------------
g -7-----5-----6-----8---------
d -7-x8--5-x8--6-x8--8-x8------
a -5-----3-----4-----6---------
e -----------------------------

estamos solos en la selva
nadie puede venir a rescatarnos
estoy muriendome de sed
y es tu propia piel
la que me hace sentir este infierno

(de esta parte no estoy muy seguro, la pueden tocar
como la primera vez)

e -----0--------0--------0---------7--------
b -----0--------0--------0---------7--------
g -7-7-7-~--9-9-9-~--5-5-5-~---9-9-9-~------
d -7-7-7-~--9-9-9-~--5-5-5-~---9-9-9-~------
a -5-5-5----7-7-7----3-3-3-----7-7-7--------
e ------------------------------------------

te llevare,

e -----0--------0--------0---------0-------
b -----0--------0--------0---------0-------
g -7-7-7-~--9-9-9-~--5-5-5-~---5-5-5-~-----
d -7-7-7-~--9-9-9-~--5-5-5-~---5-5-5-~-----
a -5-5-5----7-7-7----3-3-3-----3-3-3-------
e -----------------------------------------

abrazame
este es el juego de seduccion

e -------------------------------------------------------
b -------------------------------------------------------
g --7x-7x-7---x-x-x--9x-9x--x-x-x--5x-5--x-x-x--5-x-5----
d --7x-7x-7---x-x-x--9x-9x--x-x-x--5x-5--x-x-x--5-x-5----
a --5x-5x-5---x-x-x--7x-7x--x-x-x--3x-3--x-x-x--3-x-3----
e -------------------------------------------------------

te llevare hasta el extremo
te llevare...
abrazame ...
este es el juego de seduccion

e ------------------------------
b ------------------------------
g ------------------------------ x3
d --4-4--x-x--7-x-5-x-4-x--4b---
a --4-4--x-x--7-x-5-x-4-x-------
e --2-2--x-x--5-x-3-x-2-x-------

pausa, dejas sonar la última nota y despues ...

e ---------------------------------
b ---2--2---2--2---2--2---2--2-----
g --4--4---3--3---4--4---4--4------
d -5--5---4--4---5--5---3--3-------
a ---------------------------------
e ---------------------------------

especie de solo, juega con estas notas


e -------------------------------------
b --16^^-------------------------------
g --15^^-----14-14-14-14-14-14-14-------
d -------------------------------------
d -------------------------------------
e -------------------------------------

e -------------------------------------------------------
b -------------------------------------------------------
g --7x-7x-7---x-x-x--9x-9x--x-x-x--5x-5--x-x-x--5-x-5----
d --7x-7x-7---x-x-x--9x-9x--x-x-x--5x-5--x-x-x--5-x-5----
a --5x-5x-5---x-x-x--7x-7x--x-x-x--3x-3--x-x-x--3-x-3----
e -------------------------------------------------------

te llevare hasta el extremo
te llevare...
abrazame ...
este es el juego...

e -------------------------------------------------------
b -------------------------------------------------------
g --7x-7x-7---x-x-x--9x-9x--x-x-x--5x-5--x-x-x--5-x-5----
d --7x-7x-7---x-x-x--9x-9x--x-x-x--5x-5--x-x-x--5-x-5----
a --5x-5x-5---x-x-x--7x-7x--x-x-x--3x-3--x-x-x--3-x-3----
e -------------------------------------------------------

te llevare hasta el extremo
te llevare...
abrazame ...
abrazame!!!
este es el juego de seduccion

e ------------------------------
b ------------------------------
g ------------------------------ x3
d --4-4--x-x--7-x-5-x-4-x--4b---
a --4-4--x-x--7-x-5-x-4-x-------
e --2-2--x-x--5-x-3-x-2-x-------

e ---------------------------------
b ---2--2---2--2---2--2---2--2-----
g --4--4---3--3---4--4---4--4------
d -5--5---4--4---5--5---3--3-------
a ---------------------------------
e ---------------------------------

al final toca tambien las primeras 2 cuerdas libres
Suggest correction
Give kudos to tab author, rate the tab!
1 2 3 4 5
comments
print report bad tab
guest
You may want to rate the tab now too:
select rating
Wanna post a correction for this tab? Suggest correction