Oops, an error
Loading. Please wait.

Mi Corazón Bass Tab

14 views 1 this week
no commentswrite comment
1 2 3 4 5
3 more votes to show rating
add to favorites
launch autoscroll
font size
0
reset
guitar tuner
Autoscroll
slow
fast
+/-
esc
set tempo
stop
Help us to improve Ultimate-Guitar.com Take our survey!
×
§ EN LA CANCIÓN ORIGINA(ESTUDIO) ES CASI IGUAL, PERO EL INTRO CON 
EL VERSO ES LO MISMO  :) §
INTRO:

G|---------------------------|-------------------------|
D|---------------------------|-------------------------|
A|-2-0-2--2-0-2--------------|2-0-2--2-0-2-------------|
E|--------------3-0-3--3-0-3-|-------------3-0-3--3-0-3|

VERSO: ENTRA CON LA VOS 'QUIZÁS'...

G|---------------------------|------------------------------|
D|---------------------------|------------------------------|
A|-2-0-2--2-0-22-------------|-2-0-2--2-0-22----------------|
E|--------------3-0-3--3-0-33|--------------3-0-2--2-0-22-03|

PUENTE: NO OLVIDARÉ CERRAR...

G|--------------------------|
D|--------------------------|
A|-6--86-3--53-1--1-1-3--2-2-|
E|--------------------------|

VERSO

G|---------------------------|------------------------------|
D|---------------------------|------------------------------|
A|-2-0-2--2-0-22-------------|-2-0-2--2-0-22----------------|
E|--------------3-0-3--3-0-33|--------------3-0-2--2-0-22-03|

CORO:UUUUUUUU SIN ODIO HOY LATE....   §-SE SILEMCIA EL BAJO-§

G|--------------------------------------------|
D|--------------------------------------------|
A|5/-9-3-0-3-2/-7-/3-0-3-2/-7-/3-0-3-2/-7-/15-|
E|--------------------------------------------|

VERSO

G|---------------------------|------------------------------|
D|---------------------------|------------------------------|
A|-2-0-2--2-0-22-------------|-2-0-2--2-0-22----------------|
E|--------------3-0-3--3-0-33|--------------3-0-2--2-0-22-03|


PUENTE:

G|-----------------------------------------------|
C|-----------------------------------------------|
A|6--86-3--53-1--1-1-3--53-7H-9-/3-3/151515151515|
E|-----------------------------------------------|


G|------------------------------------------------------------------|
C|------------------------------------------------------------------|
A|-5/9-3-0-3-2/-7-/3-0-3-2/-7-/3-0-3-2/-7-/-3-0-3-2/-7-/3/1515151515|
E|------------------------------------------------------------------|


G|-----------------------------------------------|
C|-----------------------------------------------|
A|-2/-7-/3-0-3-2/-7-/-3-0-3-2/-7-/-3-0-3-2/-7-/15|
E|-----------------------------------------------|


ESTA CANCION SE LA DEDICO A MI HERMANO 'NELA' 
QUE LE GUSTA CALETA. :)
 BYE...
Suggest correction
Give kudos to tab author, rate the tab!
1 2 3 4 5
comments
print report bad tab
guest
You may want to rate the tab now too:
select rating
Wanna post a correction for this tab? Suggest correction