Oops, an error
Loading. Please wait.

Sálvame La Vida Bass Tab

version 2
version 2

Whole song

49 views 1 this week
no commentswrite comment
1 2 3 4 5
3 more votes to show rating
add to favorites
launch autoscroll
font size
0
reset
guitar tuner
Autoscroll
slow
fast
+/-
esc
set tempo
stop
Help us to improve Ultimate-Guitar.com Take our survey!
×
INTRO
G|---------------------------------------------------------------|
D|---------------------------------------------------------------|
A|-5555-3-3-3-3-33-3/55h77---------------------------------------|
E|-------------------------5-5-5-5-55-5/8888-0-0-0-00------------|

G|----------------------------------------------------------------------|
D|----------------------------------------------------------------------|
A|-------------3-3-3-3-33-3/55h77---------------------------------------|
E|-0/10101010---------------------5-5-5-5-55-5/8888-0---00---0---00/10--|

VERSO

G|-----------------------------------------------------------------------|
D|-----------------------------------------------------------------------|
A|-3--33------------------------5555-3--33-------------------------------|
E|---------5--55---0--00--------------------5--55--7--77-777-0-0-00------|
  Con que me des...            Me disuelvo...   ...cúbreme de...

INTRO
G|---------------------------------------------------------------|
D|---------------------------------------------------------------|
A|-5555-3-3-3-3-33-3/55h77---------------------------------------|
E|-------------------------5-5-5-5-55-5/8888-0-0-0-00------------|

G|------------------------------------------------------------|
D|------------------------------------------------------------|
A|-------------3-3-3-3-33-3/55h77-----------------------------|
E|-0/10101010---------------------5-5-5-5-55-5/8888-0--00/10--|

VERSO

G|--------------------------------------------------------------------------|
D|--------------------------------------------------------------------------|
A|-3--33------------------------5h7-77h55-3--33-----------------------------|
E|---------5--55---0--00-------------------------5--55--7--77-777-0-0-00----|
  Con que sueñes...             Soy el alma...

CORO
G|----------------------------------------------------|
D|----------------------------------------------------|
A|----------------------------------------------------| x2
E|-0/10101010-5-5-5-55-55-55-8-888-3-33/14-14---------|
              Una nube...          Para tu luz...

G|----------------------------|
D|----------------------------|
A|----------------------------|
E|-5-55-7-77-777-0-0-00-------|
 Pero que llueva todo el día...

INTERMEDIO
G|---------------------------------------------------------------|
D|---------------------------------------------------------------|
A|-5555-3-3-3-3-33-3/55h77---------------------------------------|
E|-------------------------5-5-5-5-55-5/8888-0-0-0-00------------|

G|----------------------------------------------------------------------|
D|----------------------------------------------------------------------|
A|-0/17171717--3-3-3-3-33-3/55h77---------------------------------------|
E|--------------------------------5-5-5-5-55-5/8888-0---00---0---00/10--|

VERSO
G|---------------------------------|
D|---------------------------------|
A|-3--33/12-1212/14-1414-----------|
E|-----------------------0-0-00----|
  Con que me des...

CORO
G|----------------------------------------------------|
D|----------------------------------------------------|
A|----------------------------------------------------| x3
E|-0/10101010-5-5-5-55-55-55-8-888-3-33/14-14---------|
              Una nube...          Para tu luz...

G|----------------------------|
D|----------------------------|
A|----------------------------|
E|-5-55-7-77-777-0-0-00-------|
 Pero que llueva todo el día...

G|------------------------------|
D|------------------------------|
A|-0/17171717-------------------|
E|------------5-55-7-77-777-0---|
              Sálvame la vida.

Este bajo es uno de los que mas me ha costado trabajo sacarlo igual a como lo toka
Eduardo, el bajista de Lucybell, despues de estudiar hartas versiones en vivo y de
verlos un par de veces en presentaciones de sus ultimas giras me puedo dar el lujo de
decir que esta es la versión mas cercana que conosco de como la toka el bajista de
Lucybell, esta muy buena y es la raja pa tokar (una de mis favoritas jeje) , hay que
tener ojo con los diferentes slides que tiene la canción y los pequeños arreglos que hay,
los cuales estan todos aqui, los pude sacar bien despues de estudiar la cancion millones
de veces jeje. Esta no es la versión en estudio, si no una adaptación de la diferentes
versiones en vivo, suena mucho mas power que la del estudio. Bueno saludos a todos los
fans de Lucybell!! ya estaré poniendo mas tabs de Lucybell para el bajo!
--- EdgE ---
Suggest correction
Give kudos to tab author, rate the tab!
1 2 3 4 5
comments
print report bad tab
guest
You may want to rate the tab now too:
select rating
Wanna post a correction for this tab? Suggest correction