Oops, an error
Loading. Please wait.

Anciano De Días Bass Tab

version 2
version 2

Whole song

53 views 1 this week
no commentswrite comment
1 2 3 4 5
3 more votes to show rating
add to favorites
launch autoscroll
font size
0
reset
guitar tuner
×
Best way to learn
"Anciano De Días"
Autoscroll
slow
fast
+/-
esc
set tempo
stop
Solo de bajo (terceras mayores y menores): Se empieza en el traste # 10,

E-10---10---12---14--12- 10--9--9---7---9---
A--------------------------------------------------
D--------------------------------------------------
G-11---11---12---14-12--11---9--9--7---9---

E10---9---7---3----3---2---E(al aire)-
A-----------------------------------------
D-----------------------------------------
G11---9--7---4----4---2----G(al aire)-

E--E(al aire)--2----2---2--7---5----- 10---10---12---
A------------------------------------------------
D------------------------------------------------
G--G(al aire)--2---2---2---7--6---- 11---11---12----

E14--12- 10--9--9---7---9---10---9---7---3----3---2
A-----------------------------------------------
D-----------------------------------------------
G14-12--11---9--9--7---9----11---9--7---4----4---2

E ---E(al aire)-
A----------------
D----------------
G--- G(al aire)-

Esta es la parte de slap:
Nota: Las notas de las cuerdas E, A, G se martillean con el pulgar,
las de la cuerda G van en pop.

E?E(al aire)?2?3?5--------------------------------
A-----------------------------2---3---5----------5---------
D------------------------------------------------------------
G------------------------------------------7?7------5?4

E-------------------------------------E(al Aire)---------------
A----5---3-----------3-----------------------------A(al aire)-
D7------------------------------5-------------------------------
G------------5?5-----3?2-----------------------------------

Esta parte queda a la imaginación de cada uno, yo subo en medios
tonos haciendo tresillos en slap.

Esta es la parte final del slap:
E--------------------------------------------------------------
A-3--3----3-------------3---5?5-----5--------------------
D--------------------------------------------------------------
G-------5------2--2-----------------7-------4--4------------

Al final se hacen otra vez dos terceras:
E?3?3---9-----
A------------------
D------------------
G?4?4---9-----

Eso es todo, espero que lo entiendan, sino me
escriben a joseulate@
Suggest correction
Give kudos to tab author, rate the tab!
1 2 3 4 5
comments
print report bad tab
guest
You may want to rate the tab now too:
select rating
Wanna post a correction for this tab? Suggest correction