Oops, an error
Loading. Please wait.

Nunca Podrán Tab

41 views 1 this week
no commentswrite comment
1 2 3 4 5
3 more votes to show rating
add to favorites
launch autoscroll
font size
0
reset
how to read this tab
guitar tuner
Autoscroll
slow
fast
+/-
esc
set tempo
stop
Help us to improve Ultimate-Guitar.com Take our survey!
×
INTRO
|-------5-5-5s8---8-6------------------------------17---17-|
|-----6---7-7s10-10-8--8----8---------8-13-11-10-----------|
|---7--------------------10---10-9---9---------------14----|
|-7--------------------------------10----------------------|
|----------------------------------------------------------|
|----------------------------------------------------------|

|----------------------------------------------------------|
|------6-----6------6--8-6-5-------------------------------|
|------7-----7------7--9-7-6-------------------------------|
|--6h7---6h7----6h7----------------------------------------|
|----------------------------------------------------------|
|----------------------------------------------------------|

|----------------------------------------------------------|
|------5-----5-----5-5s8-8-6-6-6s8-8s10-10-10s13-13-11-----|
|------6-----6-----6-6s9-9-7-7-7s9-9s11-11-11s14-14-12-----|
|--6h7---6h7---6h7-----------------------------------------|
|----------------------------------------------------------|
|----------------------------------------------------------|

|-----------------8----------17-----17---------------------|
|-8-6-8p6-------8---11-10----------------------------------|
|---------9---9-----------------14-------------------------|
|-----------10---------------------------------------------|
|----------------------------------------------------------|
|----------------------------------------------------------|

|----------------------------------------------------------|
|------6-----6------6--8-6-5-------------------------------|
|------7-----7------7--9-7-6-------------------------------|
|--6h7---6h7----6h7----------------------------------------|
|----------------------------------------------------------|
|----------------------------------------------------------|

|------------------------------------5---------------------|
|------5-----5-----5-5s8-8-6-------6-----------------------|
|------6-----6-----6-6s9-9-7-----7-------------------------|
|--6h7---6h7---6h7-----------6h7---------------------------|
|----------------------------------------------------------|
|----------------------------------------------------------|

Muchas cosas te estan diciendo de mi,
[ch]Am                    LA7[/ch]        [ch]Dm[/ch]
pues lo que quieren, es separarme de ti.
             [ch]G7[/ch]                    [ch]C[/ch]
Sé que te dicen que no soy libre,
[ch]Am-LA7[/ch]   [ch]Dm[/ch]
que soy un malo,tengo un pasado,
                         [ch]Am[/ch]
me gusta el juego y la bebida,
                       [ch]E[/ch]
tu bien lo sabes: eso es mentira.
                           [ch]Am[/ch]

Nunca hagas caso cuando te hablen de mi,
[ch]Am          LA7[/ch]                     [ch]Dm[/ch]
porque mi vida la he cambiado por ti.
          [ch]G7[/ch]                    [ch]C[/ch]
Asi es el mundo, hay gente mala
[ch]Am-LA7[/ch]   [ch]Dm[/ch]
que solo trata de hacernos daño,
                           [ch]Am[/ch]
soy tu cariño, tu eres mi vida,
                           [ch]E[/ch]
pero apartarnos : solo el señor.
                           [ch]Am[/ch]

Por mas que intenten separarnos,
[ch]Am[/ch]                    [ch]E[/ch]
por mas que busquen alejarnos,
                       [ch]Am[/ch]
sera dificil que lo logren,
[ch]Am    LA7[/ch]           [ch]Dm[/ch]
porque en mi amor, esta tu nombre.
              [ch]G7[/ch]         [ch]C[/ch]

Si algunas veces he mentido,
            [ch]E[/ch]
y en muchas otras he bebido,
                       [ch]Am[/ch]
¿Quien en la vida no ha sufrido,
              [ch]Dm        LAm[/ch]
por no ser correspondido?
        [ch]E            LAm[/ch]

INTRO

Rep tema
Suggest correction
Give kudos to tab author, rate the tab!
1 2 3 4 5
comments
print report bad tab
guest
You may want to rate the tab now too:
select rating
Wanna post a correction for this tab? Suggest correction