Oops, an error
Loading. Please wait.

Correr Frente A Tí Chords

version 3
version 3

Whole song

17 views 1 this week
no commentswrite comment
1 2 3 4 5
3 more votes to show rating
add to favorites
launch autoscroll
font size
0
reset
transpose
0
reset
simplify chords
display chords
guitar tuner
×
Best way to learn
"Correr Frente A Tí"
Autoscroll
slow
fast
+/-
esc
set tempo
stop
INTRO: B7#9

Gsus2          G-5
No me dejes como un reloj,
          Am9        Cmaj7/G
que ya no marcará los momentos,
Em9
sin tí . . .

Gsus2          G-5
Si es que duele el amanecer,
Am9
pues yo me esconderé,
Cmaj7/G
y aún así,
Em9
sabrás que hay cielo . . .


F##75          Bm7
Correr frente a tí . . .
      Bbmaj9
es un deporte,
       Am9     Gmaj7     F##75
que yo hago en silencio . . .
              Bm7
Correr frente a tí . . .
        Bbmaj9
es un deporte,
    Am9      Gmaj7    B#79
que curto en secreto . . .


No me leas como un cartel,
sin un diario de ayer . . .
que ya no dice absolutamente nada . . .
Si es que viene el anochecer . . .
pues yo me aislaré . . .
y aún así . . .
seré una estrella . . .


F##75          Bm7
Correr frente a tí . .
Bbmaj9
es un deporte,
Am9     Gmaj7     F##75
que yo hago en silencio . . .
F##75              Bm7
Correr frente a tí . . .
Am9     Gmaj7     F##75
es un deporte que curto en secreto . . .
F##75          Bm7
Correr frente a tí . . .
   A/C    Dmaj9       Bbmaj9     Am9
es un deporte, que curto en secreto,
Gmaj7     F##75
mi vida . . .


F##75              D
Correr amor correr . . .
F##75              Bm7
correr frente a tí . . .
F##75             D
correr correr correr
F##75             Bm7  Em9
correr frente a tí . . .

Em9                   F7Madd11 
Ya no tiene sentido ignorar
    Cmaj7/G                   Am9
los momentos de la vida que pasan . . .


ya no tiene remedio
la agonía de sentir . . .
que pierdo tu amor ahora . . .
justo ahora . . .


E|-----------------------0-----------
B|-----3-----3-----2-----0-----0-----
G|-----2-----2-----0-----5-----0-----
D|-----1-----0-----0-----5-----2-----
A|-----2-----0-----0-----0-----3-----
E|-----------3-----3-----------3-----
     B#79  Gsus2  G-5    Am9  Cmaj7/G


E|----2-----------2-----1-----0-----
B|----3-----3-----3-----1-----3-----
G|----0-----3-----2-----2-----4-----
D|----2-----2-----4-----3-----4-----
A|----2-----------2-----1-----------
E|----------2-----------------3-----
     Em9  F##75  Bm7  Bbmaj9 Gmaj7


E|----------------0-----
B|-----5----------0-----
G|-----6----------2-----
D|-----4----------3-----
A|-----5----------3-----
E|----------------1-----
     Dmaj9    F7Madd11
Suggest correction
Give kudos to tab author, rate the tab!
1 2 3 4 5
comments
print report bad tab
guest
You may want to rate the tab now too:
select rating
Wanna post a correction for this tab? Suggest correction