Oops, an error
Loading. Please wait.

Lago De Forma Mía Chords

10 views 1 this week
no commentswrite comment
1 2 3 4 5
3 more votes to show rating
add to favorites
launch autoscroll
font size
0
reset
transpose
0
reset
simplify chords
display chords
guitar tuner
×
Best way to learn
"Lago De Forma Mía"
Autoscroll
slow
fast
+/-
esc
set tempo
stop
        D6/9     Bbdim/D  Asus4/13/B
Te hallaré en mí
 D/A      G7M/13/9   F#m(#5)  Em7
como un jarrón.
Abo(b13)   D   Bb6(b13)
Lago de forma mía,
Bm7/#Dmaj7    C7(9)         C#m7(#5)    DMaj7(13)
más que un suspiro es una fiebre helada
F#7(#9)    D69     Bbdim/D   D69     Bbdim/D
    al volver.

Ya no pienses más que tu ángel partió.
Lago de forma mía,
tengo pensado rescatarte sin pensar en mí.

C/E          D/F#  C/E         D/F#  Bb/D                C/E
    O en la gente,   gente que viene     que viene y que va,
          D/F#    C/E              D/F#    Bb/D
gente que viene,    que viene y que va.

Yo no sé doblar ni sé caer.
Lago del alma mía.
Todas las cosas se han perdido de su corazón,
        Bm7
de su estrella...

AGmaj7           GMaj7(13)
Vas mirando del lado del agua,
Asus4           Asus4/B
sabe bien ir mirando la vida.
AGmaj7            GMaj7(13)
Vas mirando del lado del agua,
Asus4           D
sabe bien ir mirando la vida...


Donde va un color quisiera saber.
Labios de una oración.
Bajo la lluvia se producen torbellinos...


____________________________________________________________________________


                                ACORDES


     D6/9    Bbdim/D  Asus4/13/B        D/A    G7M/13/9  F#m(#5)   Em7
E------0--------0---------2--------------2-------5------------------3----
B------3--------2---------3--------------3-------5----------3-------3----
G------4--------3---------2--------------2-------4----------2-------0----
D------0--------0---------2--------------0-------4----------2-------2----
A-------------------------2--------------0--------------------------2----
E------------------------------------------------3----------2-------0----


  Abo(b13Dmaj7Bb6(b13)   Bm7/#5)    C7(9)   C#m7(#5)   DMaj7(13)
E------------------------3----------0--------5----------7--------------
B-----5-------7----------3----------3--------5----------7--------------
G-----4-------6----------2----------3--------4----------6--------------
D-----3-------5---------------------2----------------------------------
A------------------------2----------3--------4----------5--------------
E-----4-------6--------------------------------------------------------


    F#7(#9)      C/E   D/F#  Bb/D
                 (en estos acordes los bajos los toca el teclado)
E-----------------------------------------------------------------
B-----10----------------------------------------------------------
G-----9----------5-----7-------3----------------------------------
D-----8----------5-----7-------3----------------------------------
A-----9----------3-----5-------1----------------------------------
E-----------------------------------------------------------------


  Gmaj74     GMaj7(13)    Asus4/B     D
E-------------0---------------------2----------------------
B---3---------3-----------3---------3----------------------
G---2---------4-----------2---------2----------------------
D---2---------4-----------2---------0-----------------------
A---0---------------------2---------------------------------
E-------------3--------------------------------------------

polamusica@
Suggest correction
Give kudos to tab author, rate the tab!
1 2 3 4 5
comments
print report bad tab
guest
You may want to rate the tab now too:
select rating
Wanna post a correction for this tab? Suggest correction