Oops, an error
Loading. Please wait.

Las Habladurías Del Mundo Chords

112 views 1 this week
no commentswrite comment
1 2 3 4 5
3 more votes to show rating
add to favorites
×
Save as Personal and add changes to this tab that will be seen only by you. Learn more ›
×
You can save this tab as Personal to edit and correct it or add notes. All changes will be seen only by you. Learn more »
save as personal
new!
launch autoscroll
font size
0
reset
transpose
0
reset
simplify chords
display chords
guitar tuner
Autoscroll
slow
fast
+/-
esc
set tempo
stop
Strumming
There is no strumming pattern for this song yet. and get +5 IQ
[E  A  C#]x3  E5/B  A5  F#maj7  Fmaj7  E


C#5 Riff1                       B
   Toda toda la ternura me daras
         A         C#               Riff2
Si te ofrezco ser parte de tu cuerpo.-


Y al acariciarme me daras
los espejos que son de tu guia del alma.-


Mientras oigo trinos voces oigo mas
son aquellos los dioses que nos escuchaban.-


Riff3  Bsus4(5b)/C#             F#7/9
      No estoy atado a ningun sueno ya
 Bsus4(5b)/C#        F#7/9               D7/#9  B7  C#m
las habladurias del mundo no pueden atraparnos


Riff3  [A  B  A  C#]x5
[E  A  C#]x3  E5/B  A5  F#maj7  Fmaj7  E


Veo veo las palabras nunca son
lo mejor para estar desnudos.-


Y ni la anaconda es como el buey
ya no hay mas reyes de la selva.-


Toda toda la ternura me daras
si te ofresco ser carne de tu cuerpo


No estoy atado a ningun sueno ya
las habladurias del mundo no pueden atraparnos


  Riff1
e|------------------------------||
B|----------------9-------------||
G|-----------9-11---11-9--------||
D|------9-11------------11-9----||
A|-9-11----------------------11-||
E|------------------------------||

  Riff2
e|-----------------------------------------------5---||
B|-----------------------------------------------5-6-||
G|-----------------------------------------------2-7-||
D|------9--9-11--------9-9-9-11---------------9--4-7-||
A|-9-11-----------9-11------------11-----10---9--4-4-||
E|--------------9---------------9----9-8----8-7--2---||

  Riff3
e|------------------------------||
B|------------------------------||
G|------------------------------||
D|------9--9-11--------9-9-9-11-||
A|-9-11-----------9-11----------||
E|--------------9---------------||
Suggest correction
Give kudos to tab author, rate the tab!
1 2 3 4 5
comments
print report bad tab
guest
Wanna post a correction for this tab? Suggest correction