Oops, an error
Loading. Please wait.

Plegaria Para Un Niño Dormido Tab

560 views 6 this week
no commentswrite comment
1 2 3 4 5
2 more votes to show rating
add to favorites
launch autoscroll
font size
0
reset
how to read this tab
guitar tuner
×
Best way to learn
"Plegaria Para Un Niño Dormido"
Autoscroll
slow
fast
+/-
esc
set tempo
stop
Intro: [Em - Em/G - Cmaj7 - B7/4 - B7 (x2)]

Em     Em/G  Cmaj7           B7/4 - B7
  Plegaria para un niño dormido,
Em       Em/G  Cmaj7             B7/4 - B7       Gmaj7 - Bm - F
  quizás tenga flores en su ombligo        y, además,
               E              Am - Am/G
  en sus dedos que se vuelven pan,
F#7                       D
  barcos de papel sin altamar.
Em     Em/G  Cmaj7             B7/4 - B7
  Plegaria para el sueño del niño
Em         Em/G     Cmaj7     B7/4 - B7     Gmaj7 - Bm - F
  donde el mundo es un chocolatín       adonde van
               E              Am - Am/G
  mil niños dormidos que no están
F#7                       D
  entre bicicletas de cristal...
G C                   D   G  C               D
  Se ríe el niño dormido,    quizás se sienta gorrión esta vez
C               D                G             C
  jugueteando inquieto en los jardines de un lugar
        Bm7    B7/4     B7
  que jamás despierto encontrará...


Inter 1: [Em - Em/G - Cmaj7 - B7/4 - B7 (x1)]


Em      Em/G   Cmaj7              B7/4 - B7
  Que nadie, nadie despierte al niño,
Em     Em/G   Cmaj7     B7/4 - B7       Gmaj7 - Bm - F
  déjenlo que siga soñando        felicidad,
              E            Am - Am/G
  destruyendo trapos de lustrar,
F#7                     D
  alejándose de todo el mal...
G C                   D   G  C             D
  Se ríe el niño dormido,    quizás se sienta gorrión esta vez
C             D                  G             C
  jugueteando inquieto en los jardines de un lugar
        Bm7    B7/4     B7
  que jamás despierto encontrará...


Inter 2: [Em - Em/G - Cmaj7 - B7/4 - B7 (x1)]


Em     Em/G  Cmaj7           B7/4 - B7
  Plegaria para un niño dormido,
Em     Em/G  Cmaj7               B7/4 - B7       Gmaj7 - Bm - F
  quizás tenga flores en su ombligo        y, además,
           E                  Am - Am/G
  en sus dedos que se vuelven pan,
F#7                       D
  barcos de papel sin altamar.
G C                   D   G  C             D
  Se ríe el niño dormido,    quizás se sienta gorrión esta vez
C             D                  G             C
  jugueteando inquieto en los jardines de un lugar
        Bm7    B7/4     B7
  que jamás despierto encontrará...


Final: [Em - Em/G - Cmaj7 - B7/4 - B7 -- Em - Em/G - E]


-------------------------------------------

Intro:
e.----------------15-------19----|--------------------------------------|
B.-------------12----15-17----12-|-15h17-15-----------------------------|
G.-12-11-12-14-------------------|----------16-14-12--12-14-16----------|
D.-------------------------------|-----------------------------12-12-14-|
A.-------------------------------|--------------------------------------|
E.-------------------------------|--------------------------------------|

         el 15avo traste en la 1ra cuerda se puede reemplazar
              por el 20avo traste en la 2da
 Para piano:
   G -F#-G-A-B-G-D- E-B-B          dhe-D-B-A-G--G-A-B-D-D-E


Inter 2:
e.----------------15----|
B.-------------12----15-|
G.-12-11-12-14----------|
D.----------------------|
A.----------------------|
E.----------------------|

Final:

e.----------------15-------19----|
B.-------------12----15-17----17-|
G.-12-11-12-14-------------------|
D.-------------------------------|
A.-------------------------------|
E.-------------------------------|


Gracias... espero que les sirva...
Cualquier duda, sugerencia, nominación al Grammy o demás a mi correo:
            cagiosuao@
Suggest correction
Give kudos to tab author, rate the tab!
1 2 3 4 5
comments
print report bad tab
guest
You may want to rate the tab now too:
select rating
Wanna post a correction for this tab? Suggest correction