Oops, an error
Loading. Please wait.

Tu Cuerpo Mediodía Tab

79 views 1 this week
no commentswrite comment
1 2 3 4 5
3 more votes to show rating
add to favorites
launch autoscroll
font size
0
reset
how to read this tab
guitar tuner
Autoscroll
slow
fast
+/-
esc
set tempo
stop
Les envío la versión completa del tema, los acordes estaban bien...
No creo que esté perfecta pero se hace lo que se puede...
Más bien si alguien me ayuda con el riff en la estrofa...

C  Caug Fmaj7   Bbdim         G7   Bbm  Bm7/b5
Oh, mi amor, imaginé que no sentía nada más
          Riff         C7/9 - Bb/G - F13
y no eras parte de mis días
  E11/G#            Am7
y sólo existían las flores.


Inter:
        e.---------------------------|-------------|
        B.-----------------1-----0-1-|-------------|
        G.-------------1-----2-------|-------------|
        D.---2h3-2-0-2---------2-----|---3-2-0-0-2-|
        A.---------------0-----------|-------------|
        E.-4-------------------------|-4-----------|


C  Caug Fmaj7        Bbdim       G7 - Bbm - Bm7/b5
Oh, mi amor, no me resigno a perecer así
         Riff        C7/9 - Bb/G - F13
entre tu cuerpo mediodía,          oh,
  E11/G#              Am7
que se asemeja a otro mundo.


Inter coral:
        e.--------------------------|-------------|
        B.---------------1-----0-1--|-------------|
        G.-----------1-----2--------|-------------|
        D.---3-2-0-2---------2------|---3-2-0-0-2-|
        A.-------------0------------|-------------|
        E.-4------------------------|-4-----------|


  C  Caug - Fmaj7          Bbdim    G7 - Bbm - Bm7/b5
Y qué placer cuando no hay nada que pueda ver
         Riff        C7/9 - Bb/G - F13
y sólo invento tu sonrisa
   E11/G#           Am7
y apago así toda agonía.


Final coral:
        e.-------------------------|-----------------------------|
        B.---------------1-----0-1-|---------------1-----0h1-0h1-|
        G.-----------1-----2-------|-----------1-----2-----------|
        D.---3-2-0-2---------2-----|---3-2-0-2---------2---------|
        A.-------------0-----------|-------------0---------------|
        E.-4-----------------------|-4---------------------------|

        e.-------------------------|----------------|
        B.---------------1-----0-1-|--------------1-|
        G.-----------1-----2-------|-----------1--2-|
        D.---3-2-0-2---------2-----|---3-2-0-2----2-|
        A.-------------0-----------|--------------0-|
        E.-4-----------------------|-4--------------|


---------------------------------------------------------------------

RIFF:

    e.-------|
    B.-8-6-5-|
    G.-7-5-4-|
    D.-------|
    A.-------|
    E.-------|


ACORDES:

     C: x32010 ó x3201x
  Caug: x3211x ó x32110
 Fmaj7: 1x332x ó 1x3320
 Bbdim: x1233x ó x12330
    G7: 353433 --> perdón, pero no estoy seguro con este acorde
   Bbm: x13321
Bm7/b5: x2323x
  C7/9: x3233x
  Bb/G: 33336x
   F13: 1x323x ó 1x3230
E11/G#: 4x3100
   Am7: x02010


Eso es todo, y gracias...
Suggest correction
Give kudos to tab author, rate the tab!
1 2 3 4 5
comments
print report bad tab
guest
Wanna post a correction for this tab? Suggest correction