Oops, an error
Loading. Please wait.

Tu Vuelo Al Fín Tab

version 2
version 2

Whole song

49 views 1 this week
no commentswrite comment
1 2 3 4 5
3 more votes to show rating
add to favorites
launch autoscroll
font size
0
reset
how to read this tab
guitar tuner
×
Best way to learn
"Tu Vuelo Al Fín"
Autoscroll
slow
fast
+/-
esc
set tempo
stop
xx         xx0        x          0    0     x    0     x    0     x    0
||||||     ||||||     ||||||     ||||||     |0||||     ||||||     ||||||
||||||     |||0|0     |0|0|0     |00|||     ||0|||     0||0||     0||0|| IV
|||000     ||||0|     ||||0|     ||||0|     |||00|     ||||0|     ||||0|
||||||     ||||||     ||0|||     ||||||     ||||||     ||0|||     ||0|||
||0|||     ||||||     ||||||     ||||||     ||||||     ||||||     ||||||
  Gm         D         Bm7        Em7        A#-5      Dadd9/F#   Eadd11/G#

    00     x    0     x0   0     x0   0     0   00     x  0 0     x   00
||||||     ||||||     ||||||     ||||||     |||0||     ||||0|     ||||||
||||||     |0|0||     ||000|     ||00||     |00|||     ||0|||     ||0|||
0|||0| V   ||||0|     ||||||     ||||0|     ||||||     |0||||     00||||
||00||     ||0|||     ||||||     ||||||     ||||||     ||||||     ||||||
||||||     ||||||     ||||||     ||||||     ||||||     ||||||     ||||||
Amaj7      Bm7/11       A        Asus4        E          C        Cmaj7/G

    00      x   x
||||||     ||||||
||0|||     ||0|||
0||0|| VI  |||||| VI
||||0|     0||00|
||||||     ||||||
A#m6/5      Gmaj7


   00x
||||||
||0|||
00|||| V
||||||
||||||
A7sus2add13


Gm
ahhh,
D
Dime que vez,
Bm7               Em7    A#-5
dime que quieres ahora.


Dadd9/F#    Eadd11/G#     Amaj7
Vuelves de hablar con el mar
A#m6/5            Gmaj7
y acaso hay una luz
[Riff-1]
que asoma en la distancia.


Riff-1
[E]             [A] [Asus4]
------------------------0---------
-----------------2---3-------3----
-----------------2-----------2----
-----------------2-----------2----
-----------------0-----------------
-7-7-5-3-0---------------------------

Dadd9/F#   Eadd11/G#        Amaj7
No sabes que no puedes cambiar,
[Riff-2]
aunque yo te haga mal
[Riff-3]
solo pensando inutilmente

Riff-2
 F#              Bm7
----------0-------------
--------2---3----3------
------3----------2------
--4-4------------4------
------------------------
------------------------

Riff-3
[E]             [A]         [Cmaj7/G]
------------------------------0----
-----------------2---------x--0----
-----------------2---------x--0----
-----------------2---------x--2----
-----------------0------------3----
--7-7-5-3-0-------------------3----

[Riff-4]
Descubre tu vuelo al fin
Descubre tu vuelo al fin
Descubre tu vuelo al fin

 [Emaj15]      [Bm7/11] [Emaj15]      [Asus4] [Emaj15]     [Bm7/11
------0------------0-------0-------------0-------0------------0---
--------4----------3---------4-----------3---------4----------3---
----4-----4--------2-----4-----4---------2-----4-----4--------2---
------------2------4--------------2------2--------------2-----4---
------------------------------------------------------------------
------------------------------------------------------------------


A          Asus4     E
Tu vuelo al fin, tu vuelo al fin


[Repite Estribillo]
Desnuda tu velo si
Desnuda tu velo si
Descubre tu vuelo al fin
Tu vuelo al fin, tu vuelo al fin


[Repite estrofa]
Hoy, que tu lagrima cayo
temblando en el desierto
que riegas vanamente

[Repite estrofa]
te sientes la aguja de un reloj
que no sabe marcar
y solo da las vueltas


[Repite Estribillo]
Descubre tu vuelo al fin
Descubre tu vuelo al fin
Descubre tu vuelo al fin
Tu vuelo al fin, tu vuelo al fin

[Repite Estribillo]
Desnuda tu velo si
Desnuda tu velo si
Descubre tu vuelo al fin
Tu vuelo al fin, tu vuelo al fin


Cmaj7/G          A7sus2add13  E  [Riff-5]
Tu vuelo al fin

Riff-5
[E]
--------------------
--------------------
----1/2-1-----------
----------2---------
--2---------2-------
--------------0-----

Cmaj7/G          A7sus2add13  E
Tu vuelo al fin

Riff-6
------------------------------------------------------------------------
------------------------------------------------------------------------
------2-4-------------------------------------------------0-----0---1---
---2H4----2p0-2----------------0-/4--2-1------------0---2-----2-----2---
----------------------------2------------2-0-2----2---3-----5-------2---
-------------------0-2-2-3----------------------3-------------------0---


[Repite Intro]
Oh, dime que ves,
dime que quieres ahora

[Repite Estrofa]
vuelves de hablar con el mar
y acaso hay una luz
que asome a la distancia

[Repite Estrofa]
no sabes, que el universo sigue aquí
y nunca te importo,
pues solo le temiste

[Repite Estribillo]
Descubre tu vuelo al fin
Descubre tu vuelo al fin
Descubre tu vuelo al fin
Tu vuelo al fin, tu vuelo al fin

[Repite Estribillo]
Desnuda tu velo si
Desnuda tu velo si
Descubre tu vuelo al fin
Tu vuelo al fin, tu vuelo al fin

Tu vuelo al fin, sabes a lo que me refiero nena
tu vuelo al fin..
Suggest correction
Give kudos to tab author, rate the tab!
1 2 3 4 5
comments
print report bad tab
guest
You may want to rate the tab now too:
select rating
Wanna post a correction for this tab? Suggest correction