Oops, an error
Loading. Please wait.

Fantasía Herida Chords

8 views 1 this week
no commentswrite comment
1 2 3 4 5
3 more votes to show rating
add to favorites
launch autoscroll
font size
0
reset
transpose
0
reset
simplify chords
display chords
guitar tuner
×
Best way to learn
"Fantasía Herida"
Autoscroll
slow
fast
+/-
esc
set tempo
stop
*Poner capo en el primer traste.

(Estos puntos no consideran la colocación del capo)

e--11--11--13--11--10---10--9--9--11--9--8--4-----
B----------------------------------------------4--
G-------------------------------------------------
D-------------------------------------------------
A-------------------------------------------------
E-------------------------------------------------

e--11--11--13--11--10--13--18-------11--13--18--21--20--18--16--
B-------------------------------14------------------------------
G---------------------------------------------------------------
D---------------------------------------------------------------
A---------------------------------------------------------------
E---------------------------------------------------------------

G                      D                     C
 Llevo una hora en el bar y no llegaste a la cita
G                    D                    C
 será que se te olvidó o acaso que no querías
G                     D        Em                    C
 tal vez de mí no pretende nada, y yo estoy loco por estrenarla
G                      D                        C-G
 gente que viene y que va y yo estoy solo en la vía.
G                  D                      C
 Recorro media ciudad envuelto en melancolía
G                    D                    C
 no quiero pensar en ti ni deshojar margaritas
G                   D           Em                  C
 mi vuelo viene perdiendo altura, yo no me rindo cabeza dura
G                    D                  C-G
 mi record cero en amor mi media cama vacía.

Coro:
     D                    C                  G
De vuelta la tristeza al hombro, fantasía herida
     D                 C                   G
de vuelta con la cara larga y las manos vacías
Em                  B7           Em                     B7
 y voy perdiéndome por las calles, si no es contigo no son iguales
C               D                  G
y presiento que ya nunca más lo serán, ye eh eh
C               D                  G
y presiento que ya nunca más lo serán.


e--11--11--13--11--10--13--18-------11--13--18--21--20--18--16--
B-------------------------------14------------------------------
G---------------------------------------------------------------
D---------------------------------------------------------------
A---------------------------------------------------------------
E---------------------------------------------------------------

G                D                       C
 Era la tercera vez que en este mes la veía
G                     D                 C
 la cuarta vez no llegó no dio señales de vida
G                     D         Em                 C
 yo que creí que el amor rondaba, sólo me queda sabor a nada
G         D          C              G
 nada más, nada más, na na na nada más.

Coro:
     D                    C                  G
De vuelta la tristeza al hombro, fantasía herida
     D                 C                   G
de vuelta con la cara larga y las manos vacías
Em                  B7           Em                     B7
 y voy perdiéndome por las calles, si no es contigo no son iguales
C               D                  G
y presiento que ya nunca más lo serán, ye eh eh
     D                    C                  G
De vuelta la tristeza al hombro, fantasía herida
     D                 C                   G
de vuelta con la cara larga y las manos vacías
Em                  B7           Em                     B7
 y voy perdiéndome por las calles, si no es contigo no son iguales
C               D                  G
y presiento que ya nunca más lo serán, serán, serán, serán
C               D                  G
y presiento que ya nunca más lo serán, serán, serán, serán
C               D                  G
y presiento que ya nunca más lo serán.

FINAL:

e--11--11--13--11--10---10--9--9--11--9--8--4-----
B----------------------------------------------4--
G-------------------------------------------------
D-------------------------------------------------
A-------------------------------------------------
E-------------------------------------------------

e--11--11--13--11--10--13--18-------11--13--18--21--20--18--16--
B-------------------------------14------------------------------
G---------------------------------------------------------------
D---------------------------------------------------------------
A---------------------------------------------------------------
E---------------------------------------------------------------
Suggest correction
Give kudos to tab author, rate the tab!
1 2 3 4 5
comments
print report bad tab
guest
You may want to rate the tab now too:
select rating
Wanna post a correction for this tab? Suggest correction