Oops, an error
Loading. Please wait.

La Única Chords

7 views 1 this week
no commentswrite comment
1 2 3 4 5
3 more votes to show rating
add to favorites
launch autoscroll
font size
0
reset
transpose
0
reset
simplify chords
display chords
guitar tuner
Autoscroll
slow
fast
+/-
esc
set tempo
stop
Help us to improve Ultimate-Guitar.com Take our survey!
×
e--8---15--13--12--13--------------------8--10----------
B----------------------10--10----10--11-----------------
G-----------------------------------------------10--10--
D-------------------------------------------------------
A-------------------------------------------------------
E-------------------------------------------------------


e-----------------------------------------------------------------------
B------8--9--8-----10----------10----------8---------8---------6--------
G--10------------------10----------10---------9---------9---------7-----
D--------------------------10----------10--------10--------10--------8--
A-----------------------------------------------------------------------
E-----------------------------------------------------------------------

 F         C         Dm   Bb         A         Dm    C - C7
Como no creer en el amor, si contigo todo sucedió lo sé
 F         C         Dm          Am         Bb
como no creer en el amor, que me dabas vida mía
          Gm             C7              Am              Dm
en cada abrazo en cada caricia, lo dabas todo con una sonrisa
           Bb        Gm             C7            F    C7
tú eres la única, tú eres la única que me ha dado amor.

Coro:
   F                 C
La única, tú eres la única
          Bb
que de la nada hizo fantasía
         F              C - C7
echando penas del alma mía.
   F                 C
La única, tú eres la única
             Bb
que se dio entera siempre a mis manos
               F               Dm
que siempre estuvo después de amarnos
       Gm                Bb
y sólo tú eras mi dueña mía
   Gm             C7           F
tú eres la única dueña de mi amor.


e--8---15--13--12--13--------------------8--10----------
B----------------------10--10----10--11-----------------
G-----------------------------------------------10--10--
D-------------------------------------------------------
A-------------------------------------------------------
E-------------------------------------------------------


e-----------------------------------------------------------------------
B------8--9--8-----10----------10----------8---------8---------6--------
G--10------------------10----------10---------9---------9---------7-----
D--------------------------10----------10--------10--------10--------8--
A-----------------------------------------------------------------------
E-----------------------------------------------------------------------


 F               C          Dm  Bb           A            Dm        C - C7
Pero un día el cielo oscureció, el viento sopló en contra mía, por qué?
 F          C            Dm            Am           Bb
desperté y tú no estabas no, sólo un papel que me decía
       Gm           C7               Am          Dm
perdóname así es la vida no quise hacerte ningún daño
           Bb          Gm                 C7       F     C7
pero es mejor así, tú tienes que aprender a vivir sin mí.

Coro:
   F                 C
La única, tú eres la única
          Bb
que de la nada hizo fantasía
         F              C - C7
echando penas del alma mía.
   F                 C
La única, tú eres la única
             Bb
que se dio entera siempre a mis manos
               F               Dm
que siempre estuvo después de amarnos
       Gm                Bb
y sólo tú eras mi dueña mía
   Gm             C7           F
tú eres la única dueña de mi amor.


e--3/5--5--1/3--6/8--10--------------------------
B------------------------6---5--6--5-----5/6-----
G-------------------------------------5-------7--
D------------------------------------------------
A------------------------------------------------
E------------------------------------------------


e--------7/8--7/8---------------------------
B--5--6------------11--10--10--11--8--6-----
G----------------------------------------5--
D-------------------------------------------
A-------------------------------------------
E-------------------------------------------


e-----------7/8--7/8---6--5--5--6--3--1---------------5-----7--8--
B--------5-------------------------------1---7--8--3-----3--------
G--5--7-----------------------------------------------------------
D-----------------------------------------------------------------
A-----------------------------------------------------------------
E-----------------------------------------------------------------


Coro:
   G                 D
La única, tú eres la única
              C
que se dio entera siempre a mis manos
               G               Em
que siempre estuvo después de amarnos
       Am                C
y sólo tú eras mi dueña mía
   Am             D7   Em    B7          C
tú eres la única dueña,  oh, oh, oh, oh, oh
   Am      D7           C D7 G
la única, dueña de mi amoooooor.

**************************
* Jairo Espinoza Villena *
*  jairo_ev@  *
*    Chimbote - Perú     *
**************************
Suggest correction
Give kudos to tab author, rate the tab!
1 2 3 4 5
comments
print report bad tab
guest
You may want to rate the tab now too:
select rating
Wanna post a correction for this tab? Suggest correction