Oops, an error
Loading. Please wait.

Jesús Es Mi Rock Tab

23 views 1 this week
no commentswrite comment
1 2 3 4 5
3 more votes to show rating
add to favorites
launch autoscroll
font size
0
reset
how to read this tab
guitar tuner
Autoscroll
slow
fast
+/-
esc
set tempo
stop
Help us to improve Ultimate-Guitar.com Take our survey!
×
Éste es el solo de la canción. Empieza en:

     Min. 2:20
 e|-----------------------------------------------------------------|
 B|-10-10--7---7-----10--10--7---7-----10-10--7---7-----------------|
 G|-9--9-----9-------9---9-----9-------9--9-----9---------5-5-4-----|
 D|-------------------------------------------------------------7---|

   Min. 2:26
 e|---------------------------------------------------------|
 B|-10-10--7---7-----10--10--7---7-----10-10--7---7-----10--|
 G|-9--9-----9-------9---9-----9-------9--9-----9-------9---|
 D|---------------------------------------------------------|

   Min. 2:31
 e|-12h15p12h15p12h15---15s17-|-12h15p12--------------------------------|
 B|---------------------------|-----------17--15--13--------13----------|
 G|---------------------------|-----------------------14-12----14-12-14-|

   Min. 2:37
 e|-12h15p12h15p12h15---15s17-|-----------------------------------------|
 B|---------------------------|-----13-?15p13h15?15s17-17-17--?17p15p13-|
 G|---------------------------|-14--------------------------------------|

           Min. 2:44
 e|-------|-15s17-17--15s17-17--15s17-17--15s17-17--15s17v-|
 B|-15s17-|------------------------------------------------|
 G|-------|------------------------------------------------|

   Min. 2:47
 e|-17s20-20---17-15-17-15----15-17p15------15s17v-|
 B|------------------------17----------17----------|
 G|------------------------------------------------|

   Min. 2:51
 e|-----------------------------|----------------------|
 B|-15s17--15-13----13----------|----------13----------|
 G|--------------14----14-12-14-|-------------14-12-14-|
 D|-----------------------------|-14-14-12-------------|

   Min. 2:54
 e|---------------------|
 B|-13--15-13-15--15s17-|
 G|---------------------|

Este solo lo saqué de oreja; alguna petición de solos de Hard Rock,
Heavy, Rock y demás, dejo mi correo: saviour_king@

Saludos.
Suggest correction
Give kudos to tab author, rate the tab!
1 2 3 4 5
comments
print report bad tab
guest
You may want to rate the tab now too:
select rating
Wanna post a correction for this tab? Suggest correction