Oops, an error
Loading. Please wait.

Mi Niña Traviesa Tab

993 views 1 this week
no commentswrite comment
1 2 3 4 5
3 more votes to show rating
add to favorites
launch autoscroll
font size
0
reset
how to read this tab
guitar tuner
×
Best way to learn
"Mi Niña Traviesa"
Autoscroll
slow
fast
+/-
esc
set tempo
stop
Aqui Trayendo El Requinteo De La Cancion De Mi Niña Traviesa
Yo Lo Saque y Se Los Comparto, es en la primera y segunda cuerda.
Espero Les Guste, y Lo Disfruten :GuitarraClasica58:_:DEGM2013:_


Primera Parte

E -------10--9--7--5---------10--9--7--5--5-5-3-2-3-3--5-5-3-2-3-3|
B -10-10-----------------10-10------------------------------------|

Segunda Parte

E ----------10--9--7--5---5--5--10--9--7--5----5-5-3-2-3-3--5-5-3-2-3-3|
B --10-10--------------------------------------------------------------|

Tercera Parte

E --3--3--2---2--2--2--2--5--7--5--5--5--3--2--3-2-3-2-3-2-3-3--5--7--5|
B ----------3----------------------------------------------------------|

E -5-5--3-2-0--5-5--3--2----|
B -----------------------3--|


--DEGM2013--
Suggest correction
Give kudos to tab author, rate the tab!
1 2 3 4 5
comments
print report bad tab
guest
You may want to rate the tab now too:
select rating
Wanna post a correction for this tab? Suggest correction