Oops, an error
Loading. Please wait.

Yo No Sé Mañana Tab

392 views 15 this week
no commentswrite comment
1 2 3 4 5
3 more votes to show rating
add to favorites
launch autoscroll
font size
0
reset
how to read this tab
guitar tuner
Autoscroll
slow
fast
+/-
esc
set tempo
stop
Help us to improve Ultimate-Guitar.com Take our survey!
×
hola a todos los seguidores de la  , bueno saque esta cancion a
oido hoy asi que se las envio para ustedes , espero les sirva, mayormente
las tablaturas son de la trompera...esta cancion la decido a al amor de
Mi Vida Jemima 

Yo No Se Mañana - Luis Enrique

intro:

          Em7        C6add9       D/F#        Bm7
E)--5/7----------5/7------ -5/7---------5/7---------
B)--5/7---5/8----5/7---5/7--5/7---5/8---5/7---5/7--
G)--------4/7------ ---4/7--------4/7---------4/7--

Verso 1:

  E)--5/7--------
  B)--5/7---5/8--
  G)---------4/7-

Em7                     C6add9
Yo no sé si tu no sé si yo
                        D/F#
Seguiremos siendo como hoy
                             E)--5/7--------
                             B)--5/7---5/7--
                             G)---------4/7-
                         Bm7
No sé si después de amanecer
                         Em7
Vamos a sentir la misma sed
                             E)--5/7--------
                             B)--5/7---5/8--
                             G)---------4/7-

                      C6add9
Para que pensar y suponer
                           A
No preguntes cosas que no sé...

Yo no sé...

Verso 2:

  E)--5/7--------
  B)--5/7---5/8--
  G)---------4/7-

Em7                    C6add9
No sé donde vamos a parar
                        D/F#
Eso ya la piel nos lo dirá
                             E)--5/7--------
                             B)--5/7---5/7--
                             G)---------4/7-

                      Bm7
Para que jurar y prometer
                               Em7
Algo que no está en nuestro poder
                             E)--5/7--------
                             B)--5/7---5/8--
                             G)---------4/7-

                     C6add9
Yo no sé lo que es eterno
                               A
No me pidas algo que es del tiempo..

Coro:

              Em7
   Yo no sé mañana,
E)------------------2---0-
B)------0----3------------
G)--2---------------------

           C6add9
Yo no sé mañana,
                             E)--3--3--
                             B)--3--3--
                             G)--------
              D/F#
Si estaremos juntos
                             E)--2--2--
                             B)--3--3--
                             G)--------

                Bm7
Si se acaba el mundo
             Em7               C6add9
Yo no sé si soy para ti, si serás para mi
E)------------------0-0-0--------------0-0-0-------------0-0-0-----
B)------------------3-3-3--------------3-3-3-------------3-3-3-----
G)-----------------------------------------------------------------

       D/F#                    Bm7
Si lleguemos a amarnos o odiarnos
E)-- -0-0-0--------------0-0-0-------------0-0-0-----2-0-
B)- --3-3-3--------------3-3-3-------------3-3-3-----2-2-
G)- -----------------------------------------------------

           Em7
Yo no sé mañana,
           C6add9
Yo no sé mañana,
                   D/F#
Quién va a estar aquí


E)-2/5 ---------------------
B)- ------3/5--3/7---5/7/5--
G)- ------------------------

  E)-5-7----------
  B)-------- 5--8-
  G)--------------
Verso: 3

Em7                    C6add9
De un café pasamos al sofá
                        D/F#
De un botón a todo lo demás
                             E)-5-7--------
                             B)---- ---5-7-
                             G)------------


                       Bm7
No pusimos reglas ni reloj
                        Em7
Aquí estamos solos tú y yo
                             E)-5-7---------
                             B)---- ---5-8--
                             G)-------------

                          C6add9
Todo lo que ves es lo que soy
                           A
No me pidas más de lo que doy

Coro:

              Em7
   Yo no sé mañana,
E)------------------2---0-
B)------0----3------------
G)--2---------------------

           C6add9
Yo no sé mañana,
                             E)--3--3--
                             B)--3--3--
                             G)--------

              D/F#
Si estaremos juntos
                             E)--2--2--
                             B)--3--3--
                             G)--------

                Bm7
Si se acaba el mundo
             Em7               C6add9
Yo no sé si soy para ti, si serás para mi
E)------------------0-0-0--------------0-0-0-------------0-0-0-----
B)------------------3-3-3--------------3-3-3-------------3-3-3-----
G)-----------------------------------------------------------------

       D/F#                   Bm7
Si lleguemos a amarnos o odiarnos
E)-- -0-0-0--------------0-0-0-------------0-0-0-----2-0-
B)- --3-3-3--------------3-3-3-------------3-3-3-----2-2-
G)- -----------------------------------------------------

           Em7
Yo no sé mañana,
           C6add9
Yo no sé mañana,
                   D/F#
Quién va a estar aquí

E)-- -3-2-----3-2----3-2-
B)- --3-3-----3-3----3-3-
G)- ---------------------

E)--5/7--------
B)--5/7---5/8--
G)---------4/7-

Verso 4:


Em7                         C6add9
Esta vida es igual que un libro
                         D/F#
Cada página es, un día vivido
                             E)-5-7---------
                             B)---- ---5-8--
                             G)-------------

      Bm7                        Em7
No tratemos de correr antes de andar
                                E)--5/7--------
                                B)--5/7---5/8--
                                G)---------4/7-

                    C6add9
Esta noche estamos vivos
                           A
Solo este momento es realidad
    Em7
No, no, no seeeé
E)---0-0-0---0-0-0--0-
B)---0-0-0---0-0-0- 0-
G)--------------------

           C6add9
E)-5-7--------
B)---- ---5-8---
G)---------------

E)----5-7---10-7-10-10-
B)----5-7---10-7-10-10-
G)---------------------
            D/F#
E)-5-7--------
B)---- ---5-7---
G)---------------
                Bm7
E)---5-5-7---10-7-10-10-
B)---5-5-7---10-7-10-10-
G)----------------------

Em7                                  C6add9
(Yo no sé mañana) Esta vida es una ruleta
                                D/F#
que gira sin parar (yo no se mañana)

yo no se si tu yo no se si yo
      Bm7                      Em7
como sera el final (yo no se mañana)
                   C6add9                     D/F#
puede ser peooor o puede ser mejor (yo no se mañana)

deja que el corazon decida vida mia lo que
Bm7              Em7   C6add9 D/F#   Bm7
sentiiimos  mañaaaaaana  yo no se
E)---------2-0-0---0---0-0-0----0-0-0----0-0-0-
B)----0-3-----------3---------3---------3------    x2
G)--2------------------------------------------

E)---------0-2-
B)----0-3----3-
G)--2----------

Em7                C6add9
(yo no se yo no se mañana )
E)---------2-
B)---------3-
G)----------

                D/F#
ahora lo que vivimos es algo realmente lindo
Bm7                                  Em7
quien puede saber lo que pasara maañana no hay nada
C6add9
escrito.
   D/F#                                  Bm7
estamos solos tu y yo y los momentos hay que vivirlos

hay que vivirlos.
E)----------7---9---------7-10-----    --9--
B)---5-7-------9---7---9---10------ x2 --9--
G)---------------------------------    -----


           Em7
yo no se mañana
               E)---------9-
       
Suggest correction
Give kudos to tab author, rate the tab!
1 2 3 4 5
comments
print report bad tab
guest
You may want to rate the tab now too:
select rating
Wanna post a correction for this tab? Suggest correction