Oops, an error
Loading. Please wait.

Te Daré Alabanza Y Honor Bass Tab

8 views 1 this week
no commentswrite comment
1 2 3 4 5
3 more votes to show rating
add to favorites
launch autoscroll
font size
0
reset
guitar tuner
Autoscroll
slow
fast
+/-
esc
set tempo
stop
Help us to improve Ultimate-Guitar.com Take our survey!
×
Esta es mi primera trascripción. Espero que sea de su agrado. Saludos
al centro cristiano de Mérida de parte de julio


Intro:

B-------------------------------------------------------|
E-2-2-2--------------2-2-2-14s2-2-2-2-------------14/2--|
A------4-4-4--4-4-4-------------------4-4-4--4-4-4------|
D-------------------------------------------------------|
G-------------------------------------------------------|


Verso:

B---------------------------------------------------------|
E-2-2-2--2-2-2--5-5-5--5-5-5-------2-2-2--0-0-0--0-0-0----|
A----------------------------5-5-5------------------------|
D------------------------------------------------------2--|
G---------------------------------------------------------|


B---------------------------------------------------------|
E-2-2-2--2-2-2--5-5-5--5-5-5-------2-2-2-0-0-0---0-0-0----|
A----------------------------5-5-5------------------------|
D----------------------------------------------2-------2--|
G---------------------------------------------------------|

coro:

B----------------------------|
E-2-2--5-5---5----------0----|
A--------------5-5-?7-7------|
D----------7-----------------|  x 2 veces
G----------------------------|

. . .luego esto:

B-----------------------------------------------|
E-2-2-2-2--2--0-0-0-0---0?-2-2-2-2--2-0-0-0-0---|
A-----------------?-----------------------------|
D---------4-----------2------------4----------2-| 
G-----------------------------------------------|
G-----------------------------------------------|

  Intro pero así:

B----------------------------------|
E-2-2-2--------------2-2-2---------|
A------4-4-4--4-4-4----------------|
D---------------------------4------|
G----------------------------------|


Verso:


B-----------------------------------------------------------|
E-2-2-2--2-2-2--5-5-5--5-5-5-------2-2-2--0-0-0--0-0-0---0--|
A----------------------------5-5-5--------------------------|
D-----------------------------------------------2------2----|
G-----------------------------------------------------------|


B--------------------------------------------------------------------|
E-2-2-2--2-2-2--5-5-5--5-5-5-------2-2-2--0-0-0---0--------5h4h0h2h0-|
A----------------------------5-5-5--------------------5H4h2----------|
D-----------------------------------------------2----2---------------|
G--------------------------------------------------------------------|

coro:


B----------------------------|
E-2-2--5-5---5--------0-0----|
A--------------5-5-?7--------|
D----------7-------------2---|  x 2 veces
G----------------------------|


B-----------------------------------------------|
E-2-2-2-2--2--0-0-0-0---0?-2-2-2-2--2-0-0-0-0---|
A-----------------?-----------------------------|
D---------4-----------2------------4----------2-|
G-----------------------------------------------|


B----------------------------|
E-2-2--5-5---5--------0-0----|
A--------------5-5-?7--------|
D----------7-------------2---|  x 2 veces
G----------------------------|


B------------------------------------------------|
E-2-2-2-2--2--0-0-0-0---0?-2-2-2-2--2-0-0-0-0--0-|
A-----------------?------------------------------|
D---------4-----------2------------4----------2--|
G------------------------------------------------|


anciano..


B--------------------------------------------------------------|
E----------------2------------------------------0-0-0-0-0-0-0-0|
A-5----------5-----4?4---------4----5--------------------------|
D---7-7-7---7-----------4s6-6s4--------7------7----------------|
G---------7------------------------------7-7-6-----------------|


durante el solo se toca esto:

B-----------------------------|
E-2-2--5-5---5--------0-0-0---|
A--------------5-5-?7---------|
D----------7------------------|  x 2 veces
G-----------------------------|


B----------------------------------------------------|
E-2-2-2-2--2--0-0-0-0---0?-2-2-2-2--2---0-0-0------0-|
A-----------------?------------------------------2---|
D---------4-----------2------------4----------2-2----|
G----------------------------------------------------|


B-----------------------------|
E-2-2--5-5---5--------0-0-0---|
A--------------5-5-?7---------|
D----------7------------------|
G-----------------------------|


B-----------------------------|
E-2-2--5-5---5--------0-0-----|
A--------------5-5-?7---------|
D----------7------------------|
G-----------------------------|


B----------------------------------------------------|
E-2-2-2-2--2--0-0-0-0---0?-2-2-2-2--2---0-0-0------0-|
A-----------------?------------------------------2---|
D---------4-----------2------------4----------2-2----|
G----------------------------------------------------|

B---------------------------|
E-2-2--5-5---5----------0---|
A--------------5-5-?7-7-----|
D----------7----------------|
G---------------------------|

B-----------------------------|
E-2-2--5-5---5--------0-0---0-|
A---------------?-------------|
D----------7---------7----0---|
G----------------7h6----------|


B----------------------------------------------------|
E-2-2-2-2---2--0-0-0-0---0?-2-2-2-2---2---0-0--------|
A------------------?---------------------------------|
D---------4------------2------------4---------2-2-2--|
G----------------------------------------------------|


final:

B--------------------------------------|
E-0h2-0h2-0h2-0h2----0h2-0h2-0h2-------|
A-----------------?--------------4-----|  x 2 veces
D-----------------------------------2--|
G--------------------------------------|

B--------------------------------------|
E-0h2-0h2-0h2-0----0h2-0h2-0h2---------|
A-----------------?--------------4-----|  x 4 veces
D-----------------------------------2--|
G--------------------------------------|


B------------------------------2-5----------------5-5-0-2-5--------|
E-0h2-0h2-0h2-0----0h2-0h2-0h2------------------------------2---2-2|
A-----------------?----------------5-5---5-5------------------4----|
D--------------------------------------7-----2-2-2-----------------|
G------------------------------------------------------------------|


bueno esto s toda la tablatura escuchen la canción para que a garren el ritmo
Suggest correction
Give kudos to tab author, rate the tab!
1 2 3 4 5
comments
print report bad tab
guest
You may want to rate the tab now too:
select rating
Wanna post a correction for this tab? Suggest correction