Oops, an error
Loading. Please wait.

Arena Entre Mis Dedos Tab

271 views 1 this week
no commentswrite comment
1 2 3 4 5
3 more votes to show rating
add to favorites
launch autoscroll
font size
0
reset
how to read this tab
guitar tuner
×
Best way to learn
"Arena Entre Mis Dedos"
Autoscroll
slow
fast
+/-
esc
set tempo
stop
Esta cancion se la dedico a la unica persona q' he podido amar
a pesar de la distancia y el tiempo. M.D.G.C.
Espero les guste....

INTRO
    Am      F  G     Am     F            G
e|--8-8-------------------8-----8----8/10-----------
b|------8-8/10-12~~--8/10---10----10----------------
g|---------------------------------------12--12-10-9
D|--------------------------------------------------
A|--------------------------------------------------
E|--------------------------------------------------

VERSO
C          F              Am         G
 mira como ha pasado el tiempo y los años
riff1       C                 F
se han ido como un sueño y en un momento
   Am          G     riff2
dejo su huella cada beso

C            F               Am           G
 tantas canciones tantos recuerdos mil palabras
           C               F
que se hicieron verso del verso al beso
   G                              Am         F riff3    G
y la caricia se convirtio en cancion....ohhh ohhhh     ohhhh

C           F               Am         G   riff4
 Y fue esa noche el primer beso al contacto
        C                  F             G
tus labios traviesos se humedecieron en la sonrisa que me enamoro


CORO
Am         F            C         G           Am
 Y como hacer para olvidarte mariposas sin color
          F                 C         G            Am
como olvidar lo q hemos vivido no lo borra el corazon
         F                 C             G            Am
dime como hacer para arrancarle las manecilllas al reloj
             F             G
y que este amor no se nos vaya como arena entre los dedos


SOLO1
   C            F    G             Am    F
e|----8-8--------8---8/10----------8p7---8p7--
b|--------8-8/10---10------8---8/10----8-----8
g|---------------------------9----------------
D|-10-----------------------------------------
A|--------------------------------------------
E|--------------------------------------------

     G
    --------------Rapido----------
e|-((8p7-7----------------------(24)
b|---------10-8-10-10p8p7-8-10))----
g|----------------------------------
D|----------------------------------
A|----------------------------------
E|----------------------------------

VERSO 2
C          F           Am        G
 Recuerdo la risa nerviosa y la forma en que
      C                F               Am
cerrabas los ojos si una caricia, muy lentamente
G
 desendia hacia el sol

C       F              Am          G
 y esa mañana impresionable y ser facilmente
    C              F            G
impresionada y en tu mirada, vere en mis noches el amanecer

CORO
Am         F            C         G           Am
 Y como hacer para olvidarte mariposas sin color
          F                 C         G            Am
como olvidar lo q hemos vivido no lo borra el corazon
         F                 C             G            Am
dime como hacer para arrancarle las manecilllas al reloj
             F             G
y que este amor no se nos vaya como arena entre los dedos


SOLO 2
                                 <---------Rapido--------->
e|--------------------7-7-7h8p7------------7-8-7-------------
b|-----8--8-8-8-8-8-8-8-8-8----8----7-8-10-------10-8-7-8-10-
g|-7/9-9-9-9--9-9-9-9-7-7-7------7/9-------------------------
D|-----------------------------------------------------------
A|-----------------------------------------------------------
E|-----------------------------------------------------------

e|-7h8-7-8/10---10-10-
e|------------8-8--8--
e|--------------------
e|--------------------
e|--------------------
e|--------------------

Am         F            C         G           Am
 Y como hacer para olvidarte mariposas sin color
          F                 C         G            Am
como olvidar lo q hemos vivido no lo borra el corazon
         F                 C             G            Am
dime como hacer para arrancarle las manecilllas al reloj
             F             G
y que este amor no se nos muera como... arena entre los dedos

OUTRO
C - F - G - C - F - G - C

   riff1         riff2               riff3         riff4
e|-8p7-8--|-----------5-7-7h8-|-8---------------|-7h8-7---|
b|--------|-6p5-5-6-8---------|---8-8---8p5-----|-------8-|
g|--------|-------------------|-------------7/9-|---------|
D|--------|-------------------|-----------------|---------|
A|--------|-------------------|-----------------|---------|
E|--------|-------------------|-----------------|---------|
Suggest correction
Give kudos to tab author, rate the tab!
1 2 3 4 5
comments
print report bad tab
guest
You may want to rate the tab now too:
select rating
Wanna post a correction for this tab? Suggest correction