Oops, an error
Loading. Please wait.

Con Tu Voz Tab

19 views 1 this week
no commentswrite comment
1 2 3 4 5
3 more votes to show rating
add to favorites
launch autoscroll
font size
0
reset
how to read this tab
guitar tuner
Autoscroll
slow
fast
+/-
esc
set tempo
stop
Help us to improve Ultimate-Guitar.com Take our survey!
×
Capo
2nd fret
Verán que esta es muy sencilla, esta va para mi mamá,
si tienen alguna duda solo mandenme un correo,
escuchen la rola y será más fácil,
 luego les mando la tab. de ¿Dónde estas?
Es que me ha dado flojera transcribirla

Donde están los asteriscos es porque son armónicos en ese traste

Capo 2º

Intro

E------------------------------------------------
A-7----6-----4-----2----0--------0------0--------
D------------------------------------------------
G--------------------------------2-2-------------
B--0-0---0-----0-0--0-0--------5-2--2----------5-
e---0-----0--4--0----0--5-4s5s4-------0-5-4s5s4--

E------------------------------------------------------------
A-0-----0---7----2------------------0---------------0--------
D---------------------0--------------------------------------
G-2-2s4-2-------------4-4------------------------------------
B-2-2s4-4-5--0-0-0----5----5s7-5-2-------------------------5-
e-------------0---7-5-4-----------0-2s4-4-4-4s2-2-2-4s5-4s5--

E---------------------------
A-0-----0--------0-0---0----
D---------------------------
G-2-2------------2-2s4-4----
B-2--2---------5-2-2s4--5---
e-----0-5-4s5s4-------------

Estrofas

E--------------------------0---------------
A-7----6-----4----2----0---0----0----------
D--------------------------2-----2---------
G-----------------------2--2------*12------
B--0-0---0-0--0-0--0-0---0-0--2------*12---
e---0-----0----0----0------0-0----------*12

Devuelveme mi soledad  no has hecho mas que arrancarla

E---------------------------0-0-0---0-0-0
A-7----6-----4----2----0----0-0-0-0-0-0-0
D---------------------------2-2-2---2-2-2
G-----------------------2---2-2-2---2-2-2
B--0-0---0-0--0-0--0-0---0--0-0-0---0-0-0
e---0-----0----0----0-------0-0-0---0-0-0

devuelveme [ch]E nitidez    LA[/ch] quietud  mientras duermo

E---------------------------0-0-0---0-0-0
A-7----6-----4----2----0----0-0-0-0-0-0-0
D---------------------------2-2-2---2-2-2
G-----------------------2---2-2-2---2-2-2
B--0-0---0-0--0-0--0-0---0--0-0-0---0-0-0
e---0-----0----0----0-------0-0-0---0-0-0

Soy mal amigo como vez   me enamore de tu cuerpo

E---------------------------0-0---------------------
A-7----6-----4----2----0----0- 2------2-----4-------
D---------------------------2---2---2--4-----6------
G-----------------------2-2-2----1-1----4-----6---6-
B--0-0---0-0--0-0--0-0---0--0-----0------4-----5--5-
e---0-----0----0----0-------0-------------2---------

  de tu manera de  volaaaaaaaaaar   y tu voz  mientras me elevo

INTER

E-----------------------------------
A-2------------0-----0------0---0---
D------------2--2--2--2-------------
G--1---0---------2-2---2--4-4---4s2-
B---0-0-----------------0-5-5s4-4s2-
e----2---0-1-------0----------------

E------------------------------------------------
A-7----6-----4-----2----0--------0------0--------
D------------------------------------------------
G--------------------------------2-2-------------
B--0-0---0-----0-0--0-0--------5-2--2----------5-
e---0-----0--4--0----0--5-4s5s4-------0-5-4s5s4--

E------------------------------------------------------------
A-0-----0---7----2------------------0---------------0--------
D---------------------0--------------------------------------
G-2-2s4-2-------------4-4------------------------------------
B-2-2s4-4-5--0-0-0----5----5s7-5-2-------------------------5-
e-------------0---7-5-4-----------0-2s4-4-4-4s2-2-2-4s5-4s5--

E---------------------------
A-0-----0--------0-0---0----
D---------------------------
G-2-2------------2-2s4-4----
B-2--2---------5-2-2s4--5---
e-----0-5-4s5s4-------------


E--------------------------0---------------
A-7----6-----4----2----0---0----0----------
D--------------------------2-----2---------
G-----------------------2--2------*12------
B--0-0---0-0--0-0--0-0---0-0--2------*12---
e---0-----0----0----0------0-0----------*12

Devuelveme la confusión de no saber    lo que piensas

E---------------------------0-0-0---0-0-0
A-7----6-----4----2----0----0-0-0-0-0-0-0
D---------------------------2-2-2---2-2-2
G-----------------------2---2-2-2---2-2-2
B--0-0---0-0--0-0--0-0---0--0-0-0---0-0-0
e---0-----0----0----0-------0-0-0---0-0-0
  Prefiero ver a la esperanza derrotar la distancia

E---------------------------0-0-0---0-0-0
A-7----6-----4----2----0----0-0-0-0-0-0-0
D---------------------------2-2-2---2-2-2
G-----------------------2---2-2-2---2-2-2
B--0-0---0-0--0-0--0-0---0--0-0-0---0-0-0
e---0-----0----0----0-------0-0-0---0-0-0

Como mirarte    sin mentir    sin morir  por tu cuerpo

E---------------------------0-0---------------------
A-7----6-----4----2----0----0- 2------2-----4-------
D---------------------------2---2---2--4-----6------
G-----------------------2-2-2----1-1----4-----6---6-
B--0-0---0-0--0-0--0-0---0--0-----0------4-----5--5-
e---0-----0----0----0-------0-------------2---------

Por tu manera de volaaaaaaaaaaaaar    Y tu voz mientras me elevo

E--------------------------------------------
A-2--------0------0---------0-----0-0-0------
D-----------2--------------------------------
G--2---------4-4--2-------------------3-3s4-4
B---0-0---------5----5-4-2-------------------
e----2-0-2------------0-0-0-4-2s0-4-0--------

E------------------------------------------------
A-------------0-----------------0-0--------------
D------------------------------------------------
G-------------3---3-3-----------3-3--3-----------
B---------------0--0----------------0------------
e-2s4-2-0-4-0--------2s4-2-0-4-0------2s4-2-0-2-0

E
Veeeen ven a volar conmigo
                  A
No puedo entregarme menos que complete
E
Apostare a este amor
                   B                E
Que todas las heridas se las lleva el viento
  C#m           B
Y ámame, déjame amarte
 C#m
Tócame y déjame estar
   B
Mírame y déjame

E----------------0-0----------------------------------------0--|
A-4----2----0----0--2------2-----2-0--------0----0----0-----0--|
D----------------2---2------4----4--2-----2--2--------------2--|
G----------------2----1------4---4------------*12-----------2--|
B--0-0--0-0--0-0-0-----0------4--4----0-0---------*12--*12--0--|
e---0----0----0--0------1------2-2-----0--------------------0--|
  volaaaaaaaaaaaaar   con tu voz mientras  me elevo
Suggest correction
Give kudos to tab author, rate the tab!
1 2 3 4 5
comments
print report bad tab
guest
You may want to rate the tab now too:
select rating
Wanna post a correction for this tab? Suggest correction