Oops, an error
Loading. Please wait.

Dónde Estás? Tab

26 views 1 this week
no commentswrite comment
1 2 3 4 5
3 more votes to show rating
add to favorites
×
Save as Personal and add changes to this tab that will be seen only by you. Learn more ›
×
You can save this tab as Personal to edit and correct it or add notes. All changes will be seen only by you. Learn more »
save as personal
new!
launch autoscroll
font size
0
reset
how to read this tab
guitar tuner
Autoscroll
slow
fast
+/-
esc
set tempo
stop
esta es la parte del inicio, asi es como la toca,
solo tienen que escucharla bien, es algo rapida,
esta es para mi hermano
E

E---0---------------------0----------------------
A------------------------------------------------
D-----------------------------------------------
G------------------------------------------------
B-----0---0---0---0---------0-------------0------
e--------0---2---3-------------0-2-3-2-0---------

C

E-----------------------------------------------
A---3--------------------3----------------------
D-----------------------------------------------
G-----------------------------------------------
B-----1---1---1---1---------1-----------1-------
e--------0---2---3-------------0-2-3-2-0----------

Am

E-------------------------------------------------
A---0--------------------0------------------------
D-------------------------------------------------
G-------------------------------------------------
B-----1---1---1---1---------1-------------1-------
e--------0---2---3-------------0-2-3-2-0----------

B7
E-------------------------------------------------
A---2--------------------2------------------------
D------------------------------------------------
G-------------------------------------------------
B-----0---0---0---0---------0---------------1-----
e--------0---2---3-------------0-2-3-5-2-0-------

E

E---0---------------------0----------------------
A--------------------------------------------------
D-------------------------------------------------
G------------------------------------------------
B-----0---0---0---0---------0-------------0-------
e--------0---2---3-------------0-2-3-2-0----------

C

E-------------------------------------------------
A---3--------------------3------------------------
D-------------------------------------------------
G-------------------------------------------------
B-----1---1---1---1---------1-------------1-------
e--------0---2---3-------------0-2-3-2-0----------

Am

E-------------------------------------------------
A---0--------------------0------------------------
D--------------------------------------------------
G---------------------------------------------------
B-----1---1---1---1---------1-------------1-------
e--------0---2---3-------------0-2-3-2-0----------

B7
E-------------------------------------------------------------
A---2--------------------2-----------------------------------
D-------------------------------------------------------------
G-------------------------------------------------------------
B-----0---0---0---0---------0--------------1-----
e--------0---2---3-------------0-2-3-5-2-0-------
Suggest correction
Give kudos to tab author, rate the tab!
1 2 3 4 5
comments
print report bad tab
guest
Wanna post a correction for this tab? Suggest correction