Oops, an error
Loading. Please wait.

Directo Al Corazón Tab

36 views 1 this week
no commentswrite comment
1 2 3 4 5
3 more votes to show rating
add to favorites
launch autoscroll
font size
0
reset
how to read this tab
guitar tuner
Autoscroll
slow
fast
+/-
esc
set tempo
stop
Help us to improve Ultimate-Guitar.com Take our survey!
×
 Hola me llamo Israel y agregue el punteo de la transcripción
 De Rodrigo (rodrymicky@ y ahora si quedo
 Completa esta canción(es la misma transcripción nada
 Más agregue el punteo). Bueno como siempre esta canción va
 Dedicada para Sonia Jaquelyn Yonca  Arvizu  que es la persona
 A la que siempre he amado con todo mi corazón y que espero que
 Algún día se de cuenta de lo que siento por ella
                       ¡¡TE AMO YONKY!!
 Bueno ahí les va:

 Las notas se deben tocar así como esta abajo

     C   Am   Dm   F    G
 E --3---5----5----1----3
 A --3---7----5----3----5
 D --5---7----7----3----5
 G --5---5----7----2----4
 B --5---5----6----1----3
 E --3---5----5----1----3

    INTRO
  (El Intro consta de unos juegos vocales y notas con
el violín Pero con la lira quedaría algo así)
    C                          Am
 E ---------------------------------------------------------------
 A ---------------------------------------------------------------
 D ---------------------------------------------------------------
 G ----7-5----5-7---7-5-7----------7-5---5-7---7-5-7--------------
 B 8-5-----5------5-------5------5-----5-----5-------5------------
 E ----------------------------5----------------------------------

   F                            G
 E ---------------------------------------------------------------
 A ---------------------------------------------------------------
 D ---------------------------------------------------------------
 G ------7--------------------------------------------------------
 B --6-5--6---6-8---8-6-8----------8--------8-------8-6-5~--------
 E 5--------------5-------5----7-5---5-7------5-7-5---------------

    Estrofa 1
  C                Am
 Dos helados más, mucho que decir
 F                 G
 Todo por hablar, nada que fingir


 Estrofa 2
                     C
 Chiquilla mía somos como el temporal
                             Am
 que arrastra todo y no le importa a donde va,
                      F           Dm
 Nuestro cariño es un barco en altamar,
                     G
 Navega libre sin temor a naufragar.


    Coro
                C
 Cariño mío solo tu y yo, los dos
                  Am
 Sin nada que ocultar, ni tu, ni yo
       Dm
 Lanzamos el amor, y tu y yo,
                 G
 Directo al corazón , al corazón
                 C
 Cariño mio solo tu y yo, los dos
                 Am
 El pájaro y la flor, y tu y yo
              Dm
 Lanzamos el amor, y tu y yo
                 G                                 C
 Directo al corazón al corazón...cariño mio somos dos.


 Se repite la Intro

  Estrofa 3
  C                                      Am
  Salgo a caminar, tus ojos cambian el color de la ciudad,
            Dm    F
  Tu me sonríes y la gente me da igual
      G
  Te quiero tanto que no entiendo nada mas


   Coro
      C
 Cariño mio solo tu y yo, los dos
      Am
 Sin nada que ocultar, ni tu, ni yo
      Dm
 Lanzamos el amor, y tu y yo,
      G
 Directo al corazón , al corazón
      C
 Cariño mio solo tu y yo, los dos
     Am
 El pájaro y la flor, y tu y yo
      Dm
 Lanzamos el amor, y tu y yo
     G            C
 Directo al corazón al corazón...cariño mío somos dos.


   Se repite la Intro


  Coro final
      C
 Cariño mío somos dos, y tu y yo,
     Am
 El pájaro y la flor y tu, y yo
     Dm
 Lanzamos el amor, y tu, y yo
     G                                  C
 Directo al corazón, al corazón, cariño mio somos dos.


         Bueno eso fue todo y espero que les haya servido,
         y también perdón a Rodrigo por piratearme su
         versión pero solo quería completarla y pues asi
         quedo completita. Cualquier comentario a
         chaquetaardiente@

                    ¡Haaaaaaaaaaaa! Y

               ¡¡TE AMO CON TODO MI CORAZON YONKY!!
Suggest correction
Give kudos to tab author, rate the tab!
1 2 3 4 5
comments
print report bad tab
guest
You may want to rate the tab now too:
select rating
Wanna post a correction for this tab? Suggest correction