Oops, an error
Loading. Please wait.

Entrégate Tab

100 views 1 this week
no commentswrite comment
1 2 3 4 5
3 more votes to show rating
add to favorites
launch autoscroll
font size
0
reset
how to read this tab
guitar tuner
Autoscroll
slow
fast
+/-
esc
set tempo
stop
Help us to improve Ultimate-Guitar.com Take our survey!
×
Hola a todos! una bonita canción ah, a pesar de que es de hace años, je.
Practiquen bastante, cuidense!  :) ;) :D

Con Capo en el 1er. Traste

D              F#  
Cómo te atreves, a mirarme así
Bm               Gm
a ser tan bella y encima sonreír
F#m-Bm   G             A      D      A
    mía,    hoy serás mía por fin.
D              F#  
Cierra los ojos, déjate querer
Bm               Gm
quiero llevarte al valle del placer.
F#m-Bm   G             A      D      A
    mía,    hoy serás mía lo sé.

Bm                  F#m
Déjame robar, el gran secreto de tu piel
Bm                      G            A
déjate llevar por tus instintos de mujer.

D          Em
Entrégate, aún no te siento
G               A         D            A
deja que tu cuerpo se acostumbre a mi calor.
D          Em
Entrégate, mi prisionera
G               A            D
la pasión no espera y yo no puedo más de amor.

Solo
    (  Bm  -  F#m )
e|-13/15-13-13------13-15-13.----------------
B|-------------16.------------15-15----------
G|----------------------------------15-15..--
D|-------------------------------------------
A|-------------------------------------------
E|-------------------------------------------

    ( Bm   -   G    -   A   -   D ) 
e|-13/15-13-13-----------15--------------------------------|
B|-------------16.-15-16----16-13--------------------------|
G|--------------------------------15.-15-13-12-10-10/12..--|
D|---------------------------------------------------------|
A|---------------------------------------------------------|
E|---------------------------------------------------------|

D              F#  
Abre los ojos, no me hagas sufrir
Bm               Gm
no te das cuenta que tengo sed de ti
F#m-Bm  G            A            D         A
    mía,   hoy serás mía por fin.

Bm                  F#m
Déjame besar el brillo de tu desnudez
Bm                   G            A
déjame llegar a ese rincón que yo soñé.

D          Em
Entrégate, aún no te siento
G               A         D            A
deja que tu cuerpo se acostumbre a mi calor.
D          Em
Entrégate, sin condiciones
G            A                D            
tengo mil razones y yo no puedo más de amor.

Bm                  F#m
Déjame robar el gran secreto de tu piel
Bm                      G            A         Fm         A#
déjate llevar por tus instintos de mujer.  [Riff]

Riffg
e|-16-14-14-12-14..--|
B|-------------------|
G|-------------------|
D|-------------------|
A|-------------------|
E|-------------------|

(El coro sube un tono)
D#          Fm
Entrégate, aún no te siento
G#               A#                D#            A#
deja que tu cuerpo se acostumbre a mi calor.
D#          Fm
Entrégate, mi prisionera                     |------------Arpegio-------------|
G#               A#                D#                D# A# Cm A#   /  D# A# Cm D#-A#-C*
la pasión no espera y yo no puedo más de amor.


C* = 335553
Suggest correction
Give kudos to tab author, rate the tab!
1 2 3 4 5
comments
print report bad tab
guest
You may want to rate the tab now too:
select rating
Wanna post a correction for this tab? Suggest correction