Oops, an error
Loading. Please wait.

Fría Como El Viento Tab

80 views 1 this week
no commentswrite comment
1 2 3 4 5
3 more votes to show rating
add to favorites
launch autoscroll
font size
0
reset
how to read this tab
guitar tuner
Autoscroll
slow
fast
+/-
esc
set tempo
stop
Help us to improve Ultimate-Guitar.com Take our survey!
×
____________________________________________________
|                                                   |
|                   L E E  E S T O                  |
|___________________________________________________|
|                                                   |
| Antes de copiar esta transcripción a un archivo   |
| de texto, debes seleccionar la fuente tipográfica |
|  COURIER NEW  o  LUCIDA CONSOLE  , así no se te   |
| moverán los acordes ni los punteos de su posición |
| original y podrás tocar la canción correctamente. |
|___________________________________________________|

***********************************************
* =========================================== *
* ========== *FRÍA COMO EL VIENTO* ========== *
* ========== L U I S   M I G U E L ========== *
* ==============(Tono Original)============== *
* ==== (Transcripción: Rodrigo González) ==== *
* =========================================== *
***********************************************

=INTRO= (Punteo en Guitarra)

   Cm    A#    G#   A#     Cm      A#    G#   A#    Cm
E-----------------3-1--------- -------------3-1---------
B------4-3------------3------- --4-3------------3-------
G----------3------------3--5-- ------3------------3-5---
D------------3-1-------------- --------3-1--------------
A--3-------------------------- -------------------------
E----------------------------- -------------------------


=ESTROFA 1.1=
 Cm                      A#           Gm7
   TE RECUERDO ASÍ... TU PELO EN LIBERTAD,
   G#7             Fm          G
   HIELO ARDIENTE, DIFERENTE A LAS DEMÁS...

          Cm
E--3----------
B----4--3-----
G---------5---
D-------------
A-------------
E-------------

=ESTROFA 1.2=
 Cm                     A#          Gm7
   TE RECUERDO ASÍ... DEJÁNDOTE ADMIRAR,
   G#7         Fm          G                 Fm7
   INTOCABLE, INACCESIBLE, IRREAL... IRREAAAAAL...

=CORO=
                Fm          A#            Cm7
...FRÍA COMO EL VIENTO, PELIGROSA COMO EL MAR,
 Fm              G        Cm
   DULCE COMO UN BESO, NO TE DEJAS AMAR, POR ESO...
 G#            Fm              A#          D#
   NO SÉ SI TE TENGO, NO SÉ SI VIENES O TE VAS,
 Fm             G           Cm
   ERES COMO UN POTRO SIN DOMAR...

=INSTRUMENTAL=
   Cm      A#       G#     A#       Cm
E-----------------------15-13------------
B-------16-15-----------------15----13---
G-------------15-----------------15------
D----------------15-13-------------------
A--15------------------------------------
E----------------------------------------

      A#       G#     A#       Cm
E------------------15-13------------
B--16-15-----------------15----13---
G--------15-----------------15------
D-----------15-13-------------------
A-----------------------------------
E-----------------------------------


=ESTROFA 2.1=
 Cm                     A#           Gm7
   TE RECUERDO ASÍ... JUGANDO A ENAMORAR,
   G#7       Fm          G
   VANIDOSA, CAPRICHOSA... IDEAL...

         Cm
E--3----------
B----4--3-----
G---------5---
D-------------
A-------------
E-------------

=ESTROFA 2.2=
 Cm                    A#         Gm7
   TE RECUERDO ASÍ... AMANDO SIN AMAR...
   G#7        Fm           G                       Fm7
   IMPASIBLE, IMPOSIBLE DE_ALCANZAR... DE ALCANZAAAAAR...

=CORO=
                Fm          A#            Cm7
...FRÍA COMO EL VIENTO, PELIGROSA COMO EL MAR,
 Fm              G        Cm
   DULCE COMO UN BESO, NO TE DEJAS AMAR, POR ESO...
 G#            Fm              A#          D#
   NO SÉ SI TE TENGO, NO SÉ SI VIENES O TE VAS,
 Fm             G           Cm
   ERES COMO UN POTRO SIN DOMAR...

=SOLO de Guitarra= (Punteo)
          Cm           A#          Gm
E----8-10-11---11---11-10--------------
B--8---------8-----------13-11--13-11--
G--------------------------------------
D--------------------------------------
A--------------------------------------
E--------------------------------------

    G#7      Fm       G
E---8----8---8----8---7-8-10--8-10-11--
B-----6-6------6-6---------------------
G--------------------------------------
D--------------------------------------
A--------------------------------------
E--------------------------------------

=CORO=
 G#             Fm          A#            Cm7
...FRÍA COMO EL VIENTO, PELIGROSA COMO EL MAR,
 Fm              G        Cm
   DULCE COMO UN BESO, NO TE DEJAS AMAR, POR ESO...
 G#            Fm              A#          D#
   NO SÉ SI TE TENGO, NO SÉ SI VIENES O TE VAS,
 Fm             G           Cm
   ERES COMO UN POTRO SIN DOMAR... OH... OH...

=SOLO de Saxo= (Punteo en Guitarra)

E--8-11---8------------8-10------------------
B-------9------9-----11----11-9-8------------
G-----------10-----10------------10-12-------
D-------------------------------------13-10--
A--------------------------------------------
E--------------------------------------------

             G#
E---------------------8------------------------
B---------------10-12------10------------8-9---
G---11-8-------------9-9-8---8-----7-8-10------
D----------10-13-----------------10------------
A----------------------------------------------
E----------------------------------------------


G#             Fm              A#          D#
   NO SÉ SI TE TENGO, NO SÉ SI VIENES O TE VAS,
 Fm             G           Cm
   ERES COMO UN POTRO SIN DOMAR...

=CORO=
                Fm          A#            Cm7
...FRÍA COMO EL VIENTO, PELIGROSA COMO EL MAR,
 Fm              G        Cm
   DULCE COMO UN BESO, NO TE DEJAS AMAR, POR ESO...
 G#            Fm              A#          D#
   NO SÉ SI TE TENGO, NO SÉ SI VIENES O TE VAS,
 Fm             G           Cm
   ERES COMO UN POTRO SIN DOMAR...

------------------------ FIN ------------------------
  _______________________________________________
 |                                               |
 | Aquí te van algunas indicaciones básicas para |
 | tocar la canción:                             |
 |_______________________________________________|
 |                                               |
 | Para que el tema suene la raja te recomiendo  |
 | ejecutar el acorde y los cambios de  acorde   |
 | en el mismo momento en que aparecen,por eso   |
 | logré que la ubicación de cada acorde sea la  |
 | precisa, tal como puse los acordes sobre cada |
 | sílaba de verso y sobre cada punteo, así te   |
 | será más fácil ubicar el acento musical y     |
 | además, obtendrás melodía y armonía similares |
 | A [ch]A[/ch] versión original del Azteca, disfrútala  |
 |_______________________________________________|
  _______________________
 |                       |
 |       C L A V E       |   CUERDAS de la GUITARRA:
 | Universal - Americana |   E   A   D   G   B   E
 |                       |   |   |   |   |   |   |
 | [ch]C  =============== C |   [ch]E  [ch]A  [ch]D[/ch]  SOL[/ch] SI[/ch]  MI[/ch]
 | [ch]D  =============== D[/ch] | Grave                Agudo
 | [ch]E  =============== E[/ch] |
 | [ch]F  =============== F[/ch] |
 | Sol =============== G |
 | [ch]A  =============== A[/ch] |
 | [ch]B  =============== B[/ch] |
 |_______________________|

 (Acorde)    (Cuerdas)
    |       E A D G B E  Los números corresponden al
    |       | | | | | |  traste de la guitarra donde
    |       | | | | | |  se pulsa la cuerda señalada,
    |       | | | | | |  la letra X significa que no
    |       | | | | | |  se pulsa la cuerda indicada.
    |       | | | | | |
    Cm   :  X 3 5 5 4 3  ( Do menor )
    Cm7  :  X 3 5 3 4 3  ( Do menor 7 )
    D#   :  X 6 8 8 8 6  ( Re Mayor Sostenido )
    Fm   :  1 3 3 1 1 1  ( Fa menor )
    Fm7  :  1 3 1 1 1 1  ( Fa menor 7 )
    G    :  3 2 0 0 0 3  ( Sol Mayor )
    Gm   :  3 5 5 3 3 3  ( Sol menor )
    Gm7  :  3 5 3 3 3 3  ( Sol menor 7 )
    G#   :  4 6 6 5 4 4  ( Sol Mayor Sostenido )
    G#7  :  4 6 4 5 4 4  ( Sol Mayor Sostenido 7 )
    A#   :  X 1 3 3 3 1  ( La Mayor Sostenido )

  ____________________________________________________
 |                                                    |
 | Equivalencia de notas sostenidas con notas bemoles |
 |____________________________________________________|
 |                                                    |
 |  C# = Db <------> ( Do  sostenido  =  Re  bemol )  |
 |  D# = Eb <------> ( Re  sostenido  =  Mi  bemol )  |
 |  F# = Gb <------> ( Fa  sostenido  =  Sol bemol )  |
 |  G# = Ab <------> ( Sol sostenido  =  La  bemol )  |
 |  A# = Bb <------> ( La  sostenido  =  Re  bemol )  |
 |____________________________________________________|


Hola a todas y todos los admiradores del Sol de México,
me llamo Rodrigo, soy chileno y soy un cantante aficionado,
espero que les guste esta canción tanto como a mí, pues todos
los temas de Luis Miguel son geniales... Si tienes dudas,las
que sean sobre esta transcripción, escríbeme a dirección:
rodrymicky@ y un saludo para los CZA*, a los Sweet
Revenge. En especial a mis compañeros de la U. Bolivariana de
la Carrera Pedagogía del 1er. Sem del 2006 y un besito para
mi amada Karen, te amo muchiiios bebés mías.


 +EN MEMORIA DE MI HERMANITA ANDREA SUSANA MUÑOZ ALARCÓN+
           (*Abril 20,1989 - Diciembre 10,2004+)
    "Que el Señor te tenga en su gloria hermanita mía"

                "Que el Señor les Bendiga"
JUNIO, 2006                            ...El último romántico
=====================
Suggest correction
Give kudos to tab author, rate the tab!
1 2 3 4 5
comments
print report bad tab
guest
You may want to rate the tab now too:
select rating
Wanna post a correction for this tab? Suggest correction