Oops, an error
Loading. Please wait.

Fría Como El Viento Bass Tab

124 views 1 this week
no commentswrite comment
1 2 3 4 5
3 more votes to show rating
add to favorites
launch autoscroll
font size
0
reset
guitar tuner
×
Best way to learn
"Fría Como El Viento"
Autoscroll
slow
fast
+/-
esc
set tempo
stop
no comienza con esto pero se puede acompañar
E|----|----|
A|--3-|-3--|
D|----|----|
G|----|----|
aca recien
E|-------------|----------------|
A|-----------8-|----------------|
D|--5-------8--|-8--------------|
G|---5-7-8-7---|--8-10-10h12-10-|

te recuerdo asi
E|-----|----|----|-----4-|---3--|
A|-----|----|----|-6-6+--|-5+---|
D|-----|----|----|-------|------|
G|--12-|-13-|-15-|-------|------|

te recuerdo asi
E|--4---|---|---|---|-3-4-|---|---|-4---|----------|
A|---23-|---|-1-|---|-----|-5-|---|--23-|----------|
D|------|-3-|---|-1-|-----|---|-5-|-----|-------5--|
G|------|---|---|---|-----|---|---|-----|-3-h5-3---|

Fria como el viento
E|--1-|-4--|---|----|---|----|---|-3----|
A|----|--1-|---|----|---|----|-3-|---3--|
D|----|----|-1-|-4--|-3-|-35-|---|------|
G|----|----|---|--1-|---|----|---|------|

No se si te tengo
E|--1-|-4--|---|-----|----|----|----|  |------|
A|----|--1-|---|-----|-55-|-5--|-3--|  |------|
D|----|----|-1-|-----|----|--5-|----|  |------|
G|----|----|---|-2-1-|----|----|----|  |--20--|

E|-------------|----------------------|
A|-----------8-|-----------------13/0-|
D|--5-------8--|-8-------------12-----|
G|---5-7-8-7---|--8-10-10h12-10-------|

Te recuerdo asi
E|----|------|-3-4-|---|----|
A|--3-|-35-6-|-----|-5-|----|
D|----|------|-----|---|-5--|
G|----|------|-----|---|----|

Te recuerdo asi                             suave-pp
E|--34---|----|---|----|-3-4-|---|---|-4---|----------|
A|----23-|-3--|-1-|----|-----|-5-|---|--23-|----------|
D|-------|--3-|---|-01-|-----|---|-5-|-----|-------5--|
G|-------|----|---|----|-----|---|---|-----|-3-h5-3---|

Fria como el viento
E|--1-|-4--|---|----|---|----|---|------|
A|----|--1-|---|----|---|----|-3-|------|
D|----|----|-1-|-4--|-3-|-35-|---|-3-5--|
G|----|----|---|--1-|---|----|---|------|

No se si te tengo
E|--1-|-4--|---|-----|----|----|----|
A|----|--1-|---|-----|-55-|-5--|-3--|
D|----|----|-1-|-----|----|--5-|----|
G|----|----|---|-2-1-|----|----|----|

en el solo de guitarra
E|----|---|---|---|-3-4-|-4---|-----|
A|--3-|-3-|-5-|-6-|-----|--35-|-5---|
D|----|---|---|---|-----|-----|--5--|
G|----|---|---|---|-----|-----|-----|

Fria como el viento
E|--1-|-4--|---|----|---|----|---|-3----|
A|----|--1-|---|----|---|----|-3-|---3--|
D|----|----|-1-|-4--|-3-|-35-|---|------|
G|----|----|---|--1-|---|----|---|------|

No se si te tengo                    oh
E|--1-|-4--|---|-----|----|----|---|-------|
A|----|--1-|---|-----|-55-|-5--|-3-|-3-----|
D|----|----|-1-|-----|----|--5-|---|--5----|
G|----|----|---|-2-1-|----|----|---|----5--|

en el solo de saxo
E|--1-|-4--|---|----|---|----|---|-3----|
A|----|--1-|---|----|---|----|-3-|---3--|
D|----|----|-1-|-4--|-3-|-35-|---|------|
G|----|----|---|--1-|---|----|---|------|

No se si te tengo
E|--1-|-4--|---|-----|----|----|---|------|
A|----|--1-|---|-----|-55-|-5--|-3-|------|
D|----|----|-1-|-----|----|--5-|---|-5----|
G|----|----|---|-2-1-|----|----|---|---5--|

Fria como el viento
E|--1-|-4--|---|----|---|----|---|-3----|
A|----|--1-|---|----|---|----|-3-|---3--|
D|----|----|-1-|-4--|-3-|-35-|---|------|
G|----|----|---|--1-|---|----|---|------|

No se si te tengo
E|--1-|-4--|---|-----|----|----|----|
A|----|--1-|---|-----|-55-|-5--|-3--|
D|----|----|-1-|-----|----|--5-|----|
G|----|----|---|-2-1-|----|----|----|

los numeros que alado llevan este signo (+)
quiere decir que lo bajas una octava
lo hice porque el registro de mi bajo no llega ahi
pues mi bajo es de 4 cuerdas
y en esas partes se utiliza la quinta

atte. miauricio gatolar
Suggest correction
Give kudos to tab author, rate the tab!
1 2 3 4 5
comments
print report bad tab
guest
You may want to rate the tab now too:
select rating
Wanna post a correction for this tab? Suggest correction