Oops, an error
Loading. Please wait.

O Tú O Ninguna Chords

version 3
version 3

Whole song

88 views 1 this week
no commentswrite comment
1 2 3 4 5
3 more votes to show rating
add to favorites
launch autoscroll
font size
0
reset
transpose
0
reset
simplify chords
display chords
guitar tuner
×
Best way to learn
"O Tú O Ninguna"
Autoscroll
slow
fast
+/-
esc
set tempo
stop
F
C/E-F/Eb-Dm7-Ebadd9/C#-
C7sus4-C-G/B-Bbm6-C7

F                        Em7b5
Esas manos que me llevan
             Bbm/A   A(b9)  Fmaj7
Por las calles de la vida
                       Cm7
Esa cara que me obliga 
           F          Bbmaj7
A mirarla de rodillas
        C/Bb   Am7       Dm7  F/G
Solo hay una,    solo hay una
   G/B   Bb/C C7  Bb/D C/E(II)
O tu o ninguna

F                      Em7b5
Esa voz que me aconseja
          Bbm/A   A(b9)  Fmaj7
No creer en las sonrisas
                      Cm7
Ese pelo que me cubre
             F          Bbmaj7
Como lluvia de caricias
        C/Bb   Am7       Dm7  F/G
Solo hay una,    solo hay una
   G/B   Bb/C C7  Bb/D C/E(II)
O tu o ninguna

F          C/E  Dm7
O tu o ninguna 
            A/C#  Cbm5
No tengo salida
             Bbmaj7       G/B
Pues detras de ti mi amor
                   Bb/C C/E(II)
Tan solo hay bruma

F          C/E  Dm7
Si no existieras
             A/C#  Cbm5
Yo te inventaria
              Bbmaj7 Bb/C
Como el sol al dia
   C7            
O tu o ninguna

F-F/Eb-Dm7-Bbm7-Eb

F                       Em7b5
Esa que de puro honesta
           Bbm/A   A(b9)    Fmaj7
En el fondo te      molesta
                        Cm7
Esa que te admira tanto
                 F           Bbmaj7
Que te obliga a ser un santo
        C/Bb  Am7        Dm7  F/G
Solo hay una,   solo hay una
  G/B      Bb/C C7 Em7b5 Bbm/A
O tu o ninguna

Dm
Confidente de mis sueños
Dm+7
De mis pasos cada dia
Dm7
Su mirada mi camino
G7        Bbm7  Eb
Y su vida ya mi vida...

F          C/E  Dm7
O tu o ninguna 
            A/C#  Cbm5
No tengo salida
             Bbmaj7       G/B
Pues detras de ti mi amor
                   Bb/C C/E(II)
Tan solo hay bruma

F          C/E  Dm7
Si no existieras
             A/C#  Cbm5
Yo te inventaria
              Bbmaj7 G/B
Pues sin duda alguna
   Bb/C C7     
O tu 
            F C/E Dm7 A/C# Cbm5 Bbmaj7 Bb/C C7      Fdd9
O tu o ninguna                            o tu o ninguna

Chord guide:
  F  C/E F/Eb Dm7 Ebadd9/C# C7sus4  C  G/B Bbm6 C7  Em7b5 Bbm/A A(b9)
|-1-|-0-|--1-|-1-|----x----|--x---|-0-|-3-|-x--|-0-|--x--|--x--|--x--|
|-1-|-1-|--1-|-1-|----6----|--6---|-1-|-3-|-6--|-1-|--8--|--6--|--5--|
|-2-|-0-|--2-|-2-|----3----|--3---|-0-|-0-|-6--|-3-|--7--|--6--|--6--|
|-3-|-2-|--1-|-0-|----5----|--5---|-2-|-0-|-5--|-2-|--8--|--8--|--8--|
|-3-|-3-|--x-|-x-|----4----|--3---|-3-|-2-|-x--|-3-|--7--|--0--|--0--|
|-1-|-0-|--x-|-x-|----x----|--x---|-x-|-x-|-6--|-x-|--0--|-----|--x--|

 Fmaj7 Cm7 Bbmaj7 C/Bb Am7 F/G Bb/C Bb/D C/E(II) A/C# Cbm5 Bbm7  Eb
|--0--|-3-|--1---|--0-|-0-|-1-|-1--|--x-|--x---|--5--|--x-|--1-|-3-|
|--1--|-4-|--3---|--1-|-1-|-1-|-3--|--6-|--8---|--5--|--4-|--2-|-4-|
|--2--|-3-|--2---|--0-|-0-|-2-|-3--|--3-|--5---|--2--|--5-|--1-|-3-|
|--3--|-5-|--3---|--2-|-2-|-3-|-x--|--3-|--5---|--2--|--4-|--3-|-5-|
|--x--|-3-|--1---|--1-|-0-|-x-|-3--|--5-|--7---|--4--|--3-|--1-|-6-|
|--x--|-x-|--x---|--x-|-x-|-3-|-x--|--x-|--x---|--x--|--x-|--x-|-x-|


 Dm  Dm+7 G7  Fdd9
|-1-|--1-|-1-|--1--|
|-3-|--2-|-0-|--1--|
|-2-|--2-|-0-|--2--|
|-0-|--0-|-0-|--5--|
|-x-|--x-|-2-|--3--|
|-x-|--x-|-3-|--1--|

Si tienes algun comentario, alguna correccion o algo, escribeme a:
mr_pro_metalero_inc@
Suggest correction
Give kudos to tab author, rate the tab!
1 2 3 4 5
comments
print report bad tab
guest
You may want to rate the tab now too:
select rating
Wanna post a correction for this tab? Suggest correction