Oops, an error
Loading. Please wait.

Eres Mi Dueño Bass

13 views 1 this week
no commentswrite comment
1 2 3 4 5
3 more votes to show rating
add to favorites
launch autoscroll
font size
0
reset
guitar tuner
×
Best way to learn
"Eres Mi Dueño"
Autoscroll
slow
fast
+/-
esc
set tempo
stop
Esta cancion es re linda
y a pesar de ser lentita
en el bajo es violento
y complicadito
bueno esta es mi transcripcion
espero les sirva
mis amigos paganos yaaaaaaaah
Intro
E|-4-4--44-|---------|--------|-----|-----------|-4-2-|-------42-|
A|---------|-------5-|-3-3-33-|-344-|-------6-4-|--4--|-----42---|
D|---------|-4-6-4---|--------|-----|-5-8-66----|-----|---42-----|
G|---------|---------|--------|-----|-----------|-----|-42-------|

Ya va cayendo la noche
E|-24-4-|-4-----|-----|------|---------|-------|-------------|
A|------|--6----|-----|-11-3-|-134-4-4-|-----4-|-------------|
D|------|---6-5-|-1-3-|------|---------|-4-6---|-4h6---------|
G|------|-------|-----|------|---------|-------|-----4h6-7h9-|

Despacio alzo
E|--4-4-|------|-----|-1------|----------|------|-----------|
A|------|-6----|-----|---11-3-|---34-4-4-|------|-4-4--4-2--|
D|------|--6-5-|-1-3-|--------|--5-------|-6----|-----------|
G|------|------|-----|--------|-5--------|--4h6-|-----6-----|

Por todo                     te entrego hoy
E|-11-|-----|-----|-----|-44-|-------|-1-|-----|--------|---------------|
A|----|-----|-345-|---5-|----|-456---|---|-123-|-234-44-|-4-------------|
D|----|-031-|-----|--7--|----|-------|---|-----|--------|--6--------8/0-|
G|----|-----|-----|-7---|----|----33-|---|-----|--------|---6-8h10-8----|

Porque eres mi Dueño
E|-4-4-4-|-6----------|--------------|-----------|-----------------|
A|-------|--6-64-33-3-|---32-4-4---4-|-----------|--6--------------|
D|-------|---6-----5--|--5--------6--|-6-6h8-----|-8-6h8----10/8/6-|
G|-------|------------|-5--------6---|-------6h8-|------8h10-------|

Que me enamorado
E|-4-4-|-----------|-------|-------|-------|-----|-------|-44----6-|
A|-----|-46------6-|-3-3-3-|-3-----|-4-4-4-|---4-|-6-6-6-|---6--6--|
D|-----|---6---64--|-------|---5---|-------|--6--|-------|----66---|
G|-----|-----64----|-------|-----5-|-------|-6---|-------|---------|

Yo quiero Señor
E|--4-4-44-|-----|------------|-1-1-1--1------|-|---6-|-1----|
A|---------|-456-|-6----------|---------345---|-|-66--|------|
D|---------|-----|--6h8---8/4-|-------------3-|-|-----|---1--|
G|---------|-----|-----6/8----|---------------|-|-----|------|

Ya va cayendo la noche
E|--4-4-|-4-----|------|------|------|--------|------|-------|
A|------|--6----|------|---43-|---34-|--------|-34-4-|-4--4--|
D|------|---6-5-|-1-33-|-31---|--5---|-44--66-|------|--44---|
G|------|-------|------|------|-5----|---44---|------|-------|

Despacio alzo
E|--4-4-|------|------|-1-----|---------------|-----------------|
A|------|-6----|------|---0-3-|---34----------|-4---------------|
D|------|--6-5-|-1-33-|-------|---------8-6/4-|--4/6--------9/0-|
G|------|------|------|-------|-5----6/8------|-----4/6-7/9-----|

Por todo                     te entrego hoy
E|-1-1-|-----|-----|-----|-----------|-1-1-|-1----|--------|------|-----|
A|-----|-----|-345-|---5-|-66-66-6/0-|-----|---3--|-234-44-|-2024-|-2-6-|
D|-----|-031-|-----|--7--|-----------|-----|------|--------|------|-----|
G|-----|-----|-----|-7---|-----------|-----|----5-|--------|------|-----|

Porque eres mi Dueño
E|--4--|-------------|-----------------|-------------|
A|-----|-----64-33-3-|-234--------5456-|-------------|
D|-----|---64-----5--|-----3---332-----|-8------8/6--|
G|-----|-64----------|------3-3--------|--8/10-8-----|

Que me enamorado
E|--4-4-4-|---------|-----|-------|----------|
A|--------|-1-3-3-3-|-----|-4---4-|----------|
D|--------|--3------|-5---|---4---|-6-8------|
G|--------|---------|---5-|--6-6--|-----6h8--|

Porque eres mi Dueño
E|-----------64-4-4-|-4--------|----------|------------|------86-|
A|---------64-------|----3-3-3-|---32-444-|--------666-|----86---|
D|-------64---------|--6----5--|--5-------|-6-----6----|---86----|
G|-688664-----------|----------|-5--------|--4h6-5-----|-86------|

Que me enamorado
E|--4-4-4-|-------------------|--------|---------|-----------|
A|--------|-1-3-3-3-----------|-34-4-4-|----4-46-|-----------|
D|--------|--3-----35---------|--------|-6-6-----|----8-6/0--|
G|--------|----------3h53h555-|--------|--6------|-6-8-------|

Porque eres mi dueñooo
E|--1-1-1-----|----|----|-4-4-44-|------|--------|
A|--------4/6-|-65-|-55-|--------|-6-56-|--------|
D|------------|----|----|--------|--6---|-6h8----|
G|------------|----|----|--------|------|----6h8-|

                         por eso   Eres mi dueño..señor de...
E|--1-1-11-|------------|---------|
A|---------|-56-6-------|-5-5-55--|
D|---------|--------8/0-|---------|
G|---------|-----6h8----|---------|

Porque eres mi Dueño
E|--4--|-------------|-----------------|-------------|
A|-----|-----64-33-3-|-234--------5456-|-------------|
D|-----|---64-----5--|-----3---332-----|-8------8/6--|
G|-----|-64----------|------3-3--------|--8/10-8-----|

Que me enamorado
E|--4-4-4-|---------|-----|-------|-------|
A|--------|-1-3-3-3-|-----|-4---4-|-4-----|
D|--------|--3------|-5---|---4---|--6----|
G|--------|---------|---5-|--6-6--|---6h8-|

Porque eres mi Dueño
E|-----------64-4-4-|-4--------|----------|------------|------86-|
A|---------64-------|----3-3-3-|---32-444-|--------666-|----86---|
D|-------64---------|--6----5--|--5-------|-6-----6----|---86----|
G|-688664-----------|----------|-5--------|--4h6-5-----|-86------|

Que me enamorado
E|--4-4-4-|-------------------|--------|---------|-----------|
A|--------|-1-3-3-3-----------|-34-4-4-|----4-46-|-----------|
D|--------|--3-----35---------|--------|-6-6-----|----8-6/0--|
G|--------|----------3h53h555-|--------|--6------|-6-8-------|

atte. miauricio gatolar
Suggest correction
Give kudos to tab author, rate the tab!
1 2 3 4 5
comments
print report bad tab
guest
You may want to rate the tab now too:
select rating
Wanna post a correction for this tab? Suggest correction