Oops, an error
Loading. Please wait.

Carañito De Mi Vida Tab

122 views 1 this week
no commentswrite comment
1 2 3 4 5
3 more votes to show rating
add to favorites
×
Save as Personal and add changes to this tab that will be seen only by you. Learn more ›
×
You can save this tab as Personal to edit and correct it or add notes. All changes will be seen only by you. Learn more »
save as personal
new!
launch autoscroll
font size
0
reset
how to read this tab
guitar tuner
Autoscroll
slow
fast
+/-
esc
set tempo
stop
Primera Guitara
These are the chords used in the song:
Am, D7, G, C, B, Em, B7, 
Key Signature: G Time Signature: 4/4 Tempo: 120


                                                            
E||---------------0--3--0-----|-------------------0--------|
B||-------------0----------1--|----------------3-----3--0--|
G||-------0---0---------------|--2-----------2-------------|
D||-----2---2-----------------|------0-4-0-4---4-----------|
A||---------------------------|--3-------------------------|
E||---------------------------|----------------------------|


                                                          
-----------------0--------|------------------------------|
--------------1-----1-----|------------0-1-0---0-1-0---0-|
--0---------0----------2--|--------4-3-------2-------2---|
----------2---2-----------|--4---------------------------|
--2-----3-----------------|--6---------------------------|
--------------------------|------------------------------|


                                                          
--0------------0--0-0--0-0--|----------------------------|
------------0--1--1-1--1-1--|--1--1-1--1-1--3--3-3--3-3--|
--0-------0-----------------|--2--2-2--2-2--4--4-4--4-4--|
-----2-2--------------------|----------------------------|
----------------------------|----------------------------|
----------------------------|----------------------------|


                                                             
----------------------------|-------------------------------|
--0--0-0--0-0--1--1-1--1-1--|--0----0-0---0-1-0---0-1-0---0-|
--0--0-0--0-0--2--2-2--2-2--|-----------3-------2-------2---|
----------------------------|--1----0-----------------------|
----------------------------|-------------------------------|
----------------------------|-------------------------------|


                                                                        
--0------------------|-------------0--0--0-----|--------------------0--|
-----------1----0----|-------0--0-----------3--|--1---------1----3-----|
--0--------0----2----|-------0--0--0--0--0--0--|-----2-----------------|
-----------2----3----|--2----------------------|--2---------2----------|
----------------6----|--2----------------------|-----3-----------------|
---------------------|--3----------------------|-----------------------|


                                                                               
----------0---------0--|----------------0----------|--------------------------|
--3----3-----3---------|--3--1--0----------3-0-----|--------------1------1-1--|
--------------------0--|--4--2-----2--0---------0--|-------0-0-0-------2------|
--4----4-----4---------|--------0------------------|--2-----------2----2---2--|
-----------------------|-----------3--2------------|-------2---2--------------|
-----------------------|---------------------------|--3-----------------------|


                                                                            
------------------------|-------------------------|------------0-----------|
--0--0-------1--0-------|-----0----0--0--0--------|---------0-----0--------|
------------------------|-------------------------|------------0-----0-----|
--1--0------------4--0--|-----0----0--0--0--0--0--|--2------------------4--|
------------------------|--2----------------9--9--|------------------------|
------------------------|-------------------------|--3---------------------|


                                                                        
-----0--0--0--0--0-------|--------------------|-------------0----------|
--------------------3----|--1-----------------|----3--3--3-------3--1--|
-----0--0--0--0--0--0----|-----2--------------|-------------0----------|
--2----------------------|--2-----------------|----4--4--4-------4--2--|
-------------------------|-----3--------------|------------------------|
--3----------------------|--------------------|------------------------|


                                                                              
---------------0----------|-------------------------|------------------------|
--0---------------3-0-----|--------------1--1-------|--0-------------0-------|
-----2--0----0---------0--|-----0--0-0-----------2--|-------------5----------|
--0-----------------------|--2-----------2--2-------|--0----4----------4--0--|
-----3--2-----------------|--------2----------------|-------5----------------|
--------------------------|--3----------------------|------------------------|


                                                                            
-------------------------|------------------------|------------------------|
-------0--0--0-----------|------------------------|-------------1--1-------|
-----------------2-0--0--|----------------0-------|----0--0-0-----------2--|
-------1--0--0-----------|--2--2--2--2---------2--|-------------2--2----2--|
--2----------------2--2--|----------------2-------|----2--2-2--------------|
-------------------------|--3--3--3--3---------3--|------------------------|


                                                                            
------------------------|-------------------------|------------------------|
--0-------------0-------|-------0-1---0-----------|------------------------|
-------------5----------|-----------------2-0-----|----------------0-------|
--0----4----------4--0--|-------0-----0--------4--|--2--2--2--2---------2--|
-------5----------------|--2--------------3-2--0--|----------------2-------|
------------------------|-------------------------|--3--3--3--3---------3--|


                                                                         
-------------------------|--------------------|----------------0--------|
-------------------------|--3-----------------|----3--3--3--3-----3--1--|
-------------------2--2--|---------5----------|----------------0--------|
----0--0--0--0--4--------|--4------4----------|----4--4--4--4-----4--2--|
-------------------------|--------------------|-------------------------|
-------------------------|--------------------|-------------------------|


                                                                            
------------0----------|-------------------------|-------------------------|
--0------------3-0-----|--------------1---0------|--0----------------------|
--------------------0--|-----0--0--0--------2----|--------------5--4-------|
--0--------------------|--2-----------2----------|--0--4--4----------4--0--|
-----------------------|--2--2--2--2--------3----|-----5--5----------------|
-----------------------|-------------------------|-------------------------|


                                                                             
-------------------------|------------0-----------|-------------------------|
-------0--1--0-----------|---------0-----0--------|--------------1----0-----|
----------------2--0-----|------------------0-----|-----------0----------2--|
-------0--2--2--------4--|--2------------------4--|--2--2--4-----2----2--2--|
--2-------------3--2--0--|------------------------|-------------------------|
-------------------------|--3---------------------|--3----------------------|


                                                    
-------------------------|-------------------------|
--0----------------------|-------0--0--0-----------|
--------------5--4-------|----------------2--0-----|
--0--4--4----------4--0--|-------0--0--0--------4--|
-----5--5----------------|--2-------------3--2--0--|
-------------------------|-------------------------|


                                                          
----------------0--3--0-----|-------------------0--------|
--------------0----------1--|----------------3-----3--0--|
--------0---0---0-----------|--2-----------2-------------|
--2---2---2-----------------|------0-4-0-4---4-----------|
----------------------------|--3-------------------------|
--3-------------------------|----------------------------|


                                                          
-----------------0--------|------------------------------|
--------------1-----1-----|------------0-1-0---0-1-0---0-|
--0---------0----------2--|--------4-2-------2-------2---|
----------2---2-----------|--4---------------------------|
--2-----3-----------------|--5---------------------------|
--------------------------|------------------------------|


                                                          
--0------------0--0-0--0-0--|----------------------------|
------------0--1--1-1--1-1--|--1--1-1--1-1--3--3-3--3-3--|
--0-------0-----------------|--2--2-2--2-2--4--4-4--4-4--|
-----2-2--------------------|----------------------------|
----------------------------|----------------------------|
----------------------------|----------------------------|


                                                             
----------------------------|-------------------------------|
--0--0-0--0-0--1--1-1--1-1--|--0----0-0---0-1-0---0-1-0---0-|
--0--0-0--0-0--2--2-2--2-2--|-----------2-------2-------2---|
----------------------------|--0----0-----------------------|
----------------------------|-------------------------------|
----------------------------|-------------------------------|


                                                                    
--0------------------|----0--0--0--0--0-------|--------------------|
-----------1----0----|-------------------3----|--1-----------------|
--0--------0----2----|----0--0--0--0--0--0----|-----2--------------|
-----------2----4----|------------------------|--2-----------------|
----------------5----|------------------------|-----3--------------|
---------------------|------------------------|--------------------|


                                                                              
-------------0----------|---------------0----------|-------------------------|
----3--3--3-------3--1--|--0---------------3-0-----|--------------1--1-------|
-------------0----------|-----2--0----0---------0--|-----0--0-0-----------2--|
----4--4--4-------4--2--|--0-----------------------|--2-----------2--2-------|
------------------------|-----3--2-----------------|--------2----------------|
------------------------|--------------------------|--3----------------------|


                                                                            
------------------------|-------------------------|------------------------|
--0-------------0-------|-------0--0--0-----------|------------------------|
-------------5----------|-----------------2-0--0--|----------------0-------|
--0----4----------4--0--|-------1--0--0-----------|--2--2--2--2---------2--|
-------5----------------|--2----------------2--2--|----------------2-------|
------------------------|-------------------------|--3--3--3--3---------3--|


                                                                            
------------------------|------------------------|-------------------------|
-------------1--1-------|--0-------------0-------|-------0-1---0-----------|
----0--0-0-----------2--|-------------5----------|-----------------2-0-----|
-------------2--2----2--|--0----4----------4--0--|-------0-----0--------4--|
----2--2-2--------------|-------5----------------|--2--------------3-2--0--|
------------------------|------------------------|-------------------------|


                                                                        
------------------------|-------------------------|--------------------|
------------------------|-------------------------|--3-----------------|
----------------0-------|-------------------2--2--|---------5----------|
--2--2--2--2---------2--|----0--0--0--0--4--------|--4------4----------|
----------------2-------|-------------------------|--------------------|
--3--3--3--3---------3--|-------------------------|--------------------|


                                                                            
----------------0--------|------------0----------|-------------------------|
----3--3--3--3-----3--1--|--0------------3-0-----|--------------1---0------|
----------------0--------|--------------------0--|-----0--0--0--------2----|
----4--4--4--4-----4--2--|--0--------------------|--2-----------2----------|
-------------------------|-----------------------|--2--2--2--2--------3----|
-------------------------|-----------------------|-------------------------|


                                                                             
-------------------------|-------------------------|------------0-----------|
--0----------------------|-------0--1--0-----------|---------0-----0--------|
--------------5--4-------|----------------2--0-----|------------------0-----|
--0--4--4----------4--0--|-------0--2--2--------4--|--2------------------4--|
-----5--5----------------|--2-------------3--2--0--|------------------------|
-------------------------|-------------------------|--3---------------------|


                                                                             
-------------------------|-------------------------|------------------0--2--|
--------------1----0-----|--0----------------------|------3--3--3--3--------|
-----------0----------2--|--------------5--4-------|------------------0--2--|
--2--2--4-----2----2--2--|--0--4--4----------4--0--|------4--4--4--4--------|
-------------------------|-----5--5----------------|------------------------|
--3----------------------|-------------------------|------------------------|


                                                                    
--0----------------|--------------------------|-------------------||
-------------------|-----------1-----------0--|--0----------------||
--0----------------|--------0-----------------|--0----------------||
-------------------|-----2-----------0--4-----|--2----------------||
-------------------|--3-----------2-----------|-------------------||
-------------------|--------------------------|-------------------||
Suggest correction
Give kudos to tab author, rate the tab!
1 2 3 4 5
comments
print report bad tab
guest
Wanna post a correction for this tab? Suggest correction